Oops, an error
Loading. Please wait.

Kur Te Jesh Merzitur Shume Tab

816 views 3 this week
no commentswrite comment
1 2 3 4 5
please rate
add to favorites
launch autoscroll
font size
0
reset
how to read this tab
guitar tuner
Autoscroll
slow
fast
+/-
esc
set tempo
stop
Help us to improve Ultimate-Guitar.com Take our survey!
×
Contributor
Difficulty
intermediate
Strofa :

e|-0-1-0-0---------------------------------------------------------------------------|
B|-------1--1-0---1-1--1-3-1-1-1--1-3-0--0-1-0-0--0-1-0-3-0--0-0---0-0--0---1--------|
G|-------2------2-2----------2--------1--------1--------1--------2-1------2-2---2-2-2|
D|-----------------------------------------------------------------------------------|
A|-------0--------0----------0----------------------------------------------0--------|
E|------------------------------------0--------0--------0----------0-----------------|


e|-------------------------------------1----------1-0----------------0--------------------0--------|
B|-2-2-2-2-2-2---2-2-----------------3---3---3----3---3-3-0-0-1-3--3---3-3-3--0-1-------1---1---1--|
G|-2-2-2-2-0-0-------2-2-0-0---0---2-------2------2-1-----------1--------1--------2---2-------2---2|
D|---------------------------3---3-------------0------------------------------------2--------------|
A|-0-----------0------------------------------------------------------------------0----------------|
E|--------------------------------------------------0-----------0--------0-------------------------|


Refreni :


e|---------------------------------0-1-----------------------0-----0-0---1-1------0-1-----1-1-3-0-0-|
B|-------3--3-3--0-0-1-3--3-3--3-3-----3-0-3-1-----1-------------1---1-3---3--3-3-----0---0-0---1-1-|
G|----------1-1-----------1-1--------------------2-----0-0-0---0------------------------0-----------|
D|-2-2-2-----------------------------0---------2-------------------------0--------------------------|
A|-------------------------------------------0---------------3-----3----------------------------3---|
E|-------0-------------0-----------------------------3------------------------------3---------------|


e|--------------------------------0-1-----------------------0-----0-0---1-1------0-1-----1-1-3-0-0-|
B|-------3-0-0--0-0-1-3--3-3--3-3-----3-0-3-1-----1-------------1---1-3---3--3-3-----0---0-0---1-1-|
G|-----------1-----------1-1--------------------2-----0-0-0---0------------------------0-----------|
D|-2-2-2----------------------------0---------2-------------------------0--------------------------|
A|------------------------------------------0---------------3-----3----------------------------3---|
E|---------0----------0-----------------------------3------------------------------3---------------|


e|-0-0-0---0-0-------------------------------|
B|-1-1-1-3-3-3--0-0-1-3-0--0h1---------------|
G|-0-0-0---1-1-----------------2-------------|
D|-------------------------------------------|
A|-----------------------------0-------------|
E|-------0------------0----------------------|

Suggest correction new What's this?
You can suggest a correction to this tab. Community and Mods will review your correction and vote to approve or reject it.
comments
We did not receive enough feedback on this tab! Please rate:
print report bad tab
1 2 3 4 5
guest
You may want to rate the tab now too:
select rating
Please do not post tabs as comments. Select "correction" instead!