Oops, an error
Loading. Please wait.

Mad Surfer Tab

version 1
version 1

Whole song

Interactive

2,973 views 1 this week
no commentswrite comment
1 2 3 4 5
please rate
add to favorites
launch autoscroll
font size
0
reset
how to read this tab
guitar tuner
Autoscroll
slow
fast
+/-
esc
set tempo
stop
Help us to improve Ultimate-Guitar.com Take our survey!
×
Author
Difficulty
intermediate
Ok guys, Here u have the song, it sounds great..nice song! enjoy

-------------------Standar Tuning----------------

INTRO:
------


First Part
e|-----------------------------------|
B|-----------------------------------|
G|-------7-7--5----------------------|
D|---0-0--------7--5~~--3-5-7-5-7-5-3|
A|-----------------------------------|
E|-----------------------------------|

Second Part (Optional) (After First Part)
e|---------------------------------------------|
B|---------------------------------------------|
G|-------12-12--10-----------------------------|
D|---0-0-----------12--10~~--8-10-12-10-12-10-8|
A|---------------------------------------------|
E|---------------------------------------------|


First Stanza (or whatever):
---------------------------

Chords:  A   C   G   (immediately after these 3 chords play the FIRST PART of the INTRO)

Chords: A5   C5   G5   D5  ; A5  C5   G5  A5 (IN THE LAST CHORD "A5" YOU HAVE TO PLAY IT 
1/4 AND AFTER SLIDE THE CHORD, JUST LIKE THE SONG, play the song...you'll see...)


(of if you want use the traditional chords...well..you can)

Chorus:
-------

Chords:  A    C    D    F ("F" in the eighth fret, ok?)

         A    C    D    A (as the last time, we SLIDE this chord, again...play the song 
notice the effect =D)


AFTER THIS CHORUS PLAY THE INTRO AGAIN!!!


Second Stanza (or whatever):
---------------------------

Chords:   A5    C5    G5    D5;  A5   C5   G5    D5  (The "D5" we're gonna SLIDE 
yeah, play the song... XD )

PLAY THE INTRO AGAIN!!!!

LAST PART:
----------

Chords:   A5   C5   D5   F5; A5   C5   D5   F5 ;  A5  F5   E5  E5   A5  (Slide the A5 
finish)


|||||||| YOU CAN USE TRADITIONAL CHORDS IF YOU DONT WANNA USE THE POWER CHORDS ||||||||


Well...this is it...enjoy!! comment!! if u like!! and, any problem tell me =D
Suggest correction
What's this?
You can suggest a correction to this tab. Community and Mods will review your correction and vote to approve or reject it.
comments
We did not receive enough feedback on this tab! Please rate:
print report bad tab
1 2 3 4 5
guest
You may want to rate the tab now too:
select rating
Please do not post tabs as comments. Select "correction" instead!