Oops, an error
Loading. Please wait.

Mad Surfer Tab

version 2
version 2

Whole song

Interactive

1,387 views 3 this week
no commentswrite comment
1 2 3 4 5
please rate
add to favorites
launch autoscroll
font size
0
reset
how to read this tab
guitar tuner
Autoscroll
slow
fast
+/-
esc
set tempo
stop
Help us to improve Ultimate-Guitar.com Take our survey!
×
Author
Difficulty
novice
INTRO:

e|----------------------------------------|
B|-----10-10-8----------------------------|
G|-------------9-7~----7-9-7--------------|
D|-7-7--------------10-------10-9-8/14-14-|
A|----------------------------------------|
E|----------------------------------------|

e|----------------------------------------|
B|--17-17-15------------------------------|
G|-----------16-14~----14-16-14-----------|
D|------------------17----------17-16-15--|
A|----------------------------------------|
E|----------------------------------------|

	VERSAL CHORD 1: (*)

	e|-----------------------------------------|
	B|--------10-10-8--------------------------|
	G|----------------9-7~----7-9-7------------|
	D|----7-7--------------10-------10-9-8-----| 
	A|-----------------------------------------|
	E|-----------------------------------------|

	VERSAL CHORD 2: (#)

	e|-----------------------|
	B|--------10-10-8--------|
	G|----------------9-7----|
	D|----7-7----------------| 
	A|-----------------------|
	E|-----------------------|

	CHORD TRANSPOSITION FOR EXACT TONE AS THE BG SOUND:

A			C			G
5			   3			   3
e|-x-|---|---|---|      e|-x-|---|---|---|	e|-x-|---|---|---|
B|-x-|---|---|---|	B|-x-|---|---|---|	B|-x-|---|---|---|
G|-x-|---|---|---|	G|-x-|---|-x-|---|	G|-x-|---|---|---|
D|---|---|-x-|---|	D|---|---|-x-|---|	D|---|---|-x-|---|
A|---|---|-x-|---|	A|-x-|---|---|---|	A|---|---|-x-|---|
E|-x-|---|---|---|	E|---|---|---|---|	E|-x-|---|---|---|

D			U1(dont know the name)  U2(dont know the name,too)			
5			   8			   7
e|-x-|---|---|---|      e|-x-|---|---|---|	e|-x-|---|---|---|
B|-x-|---|---|---|	B|-x-|---|---|---|	B|-x-|---|---|---|
G|---|---|-x-|---|	G|-x-|---|-x-|---|	G|-x-|---|---|---|
D|---|---|-x-|---|	D|---|---|-x-|---|	D|---|---|-x-|---|
A|-x-|---|---|---|	A|-x-|---|---|---|	A|---|---|-x-|---|
E|---|---|---|---|	E|---|---|---|---|	E|-x-|---|---|---|



VERSE 1:	
       A	 C	       G		*
	Doraibugi gaaruzu tatuu pasapasa no kami
       A       C	   G                *  
	Haieesu dasshuboodo ashi nagedashite
       A        C           G         A
	Dauntaun nukedashite bessekai e yes worry
       A          C            G	      A(strum once and slide down)		
	GANG a boy heddo sheiku big wave power

CHORUS:
			     A    C 	 		D    U1
	Somebody get me a love     somebody get me a wild
			      A    C			  D    U1
	I love your deadly hair     I love your deadly wild
	U1-pause	  *   		
	Just rozy you got crazy

VERSE 2:
       A        C          G               A 	
	Bad days nagesutete shizen ni kaesu rock bibi
       A         C         G                 #  A(strum once and slide down)
	Nachuraru shikou no oretachi na no sa

CHORUS:
                             A    C  			D    U1
	Somebody get me a love     somebody get me a wild
			      A    C                      D    U1			
	I love your deadly hair     I love your deadly wild
			   A    U1		    U2		    
	Nobody living alone      nobody living alone
		A(strum once and slide down)
	Just GO!!

Suggest correction
What's this?
You can suggest a correction to this tab. Community and Mods will review your correction and vote to approve or reject it.
comments
We did not receive enough feedback on this tab! Please rate:
print report bad tab
1 2 3 4 5
guest
You may want to rate the tab now too:
select rating
Please do not post tabs as comments. Select "correction" instead!