Oops, an error
Loading. Please wait.

Bloody Tears Tab

version 1
version 1

Whole song

Interactive

33,776 views 27 this week
3 commentsread comments
1 2 3 4 5
excellent!
x 8
add to favorites
launch autoscroll
font size
0
reset
how to read this tab
guitar tuner
Tab Pro tools
  • play this tab
  • loop segment
  • change instrument
  • show fretboard
  • metronome
Autoscroll
slow
fast
+/-
esc
set tempo
stop
-------------------------------------------------------------------------------
                             Bloody Tears - Kenichi Matsubara

-------------------------------------------------------------------------------
Tabbed by: Josh Herron  
Email: iduno871@yahoo.com

Tuning:EADGBe
    
INTRO
      D                                G   C   F   Bb  D#  A   D      G   A
e|---------------------------------|---------------------------------------|
B|---------------------------------|---------------------------------------|
G|---------------------------------|---------------------------------------|
D|----7----------------------------|-------5-------3---8-------7-----------|
A|----5----------------------------|---5---3---3---1---6---7---5------5---7|
E|--------------------/15-\--------|---3-------1-----------5----------3---5|
      A    D
e|---------------------------------|
B|---------------------------------|
G|---------------------------------|
D|---------7-----------------------|
A|----7----5-----------------------|
E|----5----------------------------|
     
     G   A    A        A       A       A  A       G   A    A        A
e|-------------------------------------------------------------------------|
B|-------------------------------------------------------------------------|
G|-------------------------------------------------------------------------|
D|-------------------------------------------------------------------------|
A|---5-/-7--X-7--X-X---7--X-X--7--X-X--7--7---X-X-5-/-7--X-7--X-X---7--X---|
E|---3-/-5--X-5--X-X---5--X-X--5--X-X--5--5---X-X-3-/-5--X-5--X-X---5--X---|

 |-----HARMONICS-----|
e|----------------5--|
B|-------------5-----|
G|--------5-5--------|
D|-----5-------------|
A|--5----------------|
E|-------------------|

    G  A    A        A       A       A  A   G  A  A# A# A# G  A  A#     G A#
e|-------------------------------------------------------------------------|
B|-------------------------------------------------------------------------|
G|-------------------------------------------------------------------------|
D|-------------------------------------------------------------------------|
A|--5--7--X-7--X-X---7--X-X--7--X-X--7--7---5--7--8--8--8--5--7--8-8-8--5-8|
E|--3--5--X-5--X-X---5--X-X--5--X-X--5--5---3--5--6--6--6--3--5--6-6-6--3-6|

     G   A    A        A       A       A  A       G   A    A        A
e|-------------------------------------------------------------------------|
B|-------------------------------------------------------------------------|
G|-------------------------------------------------------------------------|
D|-------------------------------------------------------------------------|
A|---5-/-7--X-7--X-X---7--X-X--7--X-X--7--7---X-X-5-/-7--X-7--X-X---7--X---|
E|---3-/-5--X-5--X-X---5--X-X--5--X-X--5--5---X-X-3-/-5--X-5--X-X---5--X---|
  
 |-----HARMONICS-----|
e|----------------5--|-----------------------------------------------------|
B|-------------5-----|-----------------------------------------------------|
G|--------5-5--------|-----------------------------------------------------|
D|-----5-------------|-----------------------------------------------------|
A|--5----------------|-----------------------------------------------------|
E|-------------------|-----------------------------------------------------|
   
    G   A    A        A       A       A  A   G   A                       D
e|-------------------------------------------------------------------------|
B|-----------------------------------------------------------------------3-|
G|-----------------------------------------------------------------------2-|
D|-----------------------------------------------------------------------0-|
A|--5-/-7--X-7--X-X---7--X-X--7--X-X--7--7---5-/-7-------------------------|
E|--3-/-5--X-5--X-X---5--X-X--5--X-X--5--5---3-/-5--6--5--3--1--3--1-0-----|

Verse 1
e|-------------------------------------------------------------------------|
B|-----13-------------------------13---------------------------------------|
G|--12----14--12h14p12---10----12-----14---12h14p12---10---12-10h12p10--9--|
D|-------------------------------------------------------------------------|
A|-------------------------------------------------------------------------|
E|-------------------------------------------------------------------------|

e|-----------------------------------------------------17--17b---17--------|
B|------------------------------17--18--17---------------------------------|
G|-9--10--12--15--14~~------17--------------19--17~------------------------|
D|-------------------------------------------------------------------------|
A|-------------------------------------------------------------------------|
E|-------------------------------------------------------------------------|

e|--15h17p15----13h15p13---12--13--15--12--13------------------------------|
B|-------------------------------------------------------------------------|
G|-------------------------------------------------------------------------|
D|-------------------------------------------------------------------------|
A|-------------------------------------------------------------------------|
E|-------------------------------------------------------------------------|

    D  D     C  C    A# A#        C C       C C       A  A   C C  G  A# C
e|-------------------------------------------------------------------------|
B|-------------------------------------------------------------------------|
G|-------------------------------------------------------------------------|
D|--7--7-----5--5----3--3----X-X--5-5--X-X--5-5--X-X--7--7---5-5-----------|
A|--5--5-----3--3----1--1----X-X--3-3--X-X--3-3--X-X--5--5---3-3--5--8--10-|
E|----------------------------------------------------------------3--6--8--|

e|--------------------|----------------------------------------------------|
B|--------------------|-------------------17-18--17--15--------------------|
G|--------------------|---------------14-----------------17----------------|
D|--------------------|------10------------------------------17b-----------|
A|--/5----------------|---10-----12----------------------------------------|
E|-------------15\----|----------------------------------------------------|

Verse 2
e|-------------------------------------------------------------------------|
B|-------------------------------------------------------------------------|
G|-------------------------------------------------------------------------|
D|--15------15--15---------------------------------------------------------|
A|------17----------17---15-----------------------------------------13--12-|
E|--------------------------15b--13h15p13---12h13p10--10--12-13-15---------|

e|-------------------------------------------------------------------------|
B|----17-18--20--18-20-20b----20b--18---------------------20-22-20---------|
G|-14---------------------------------19~~-19\---19-21-22----------22-21-19|
D|-------------------------------------------------------------------------|
A|-------------------------------------------------------------------------|
E|-------------------------------------------------------------------------|

e|-------------------------------------------------------------------------|
B|-------------------17--15------------------------------18----------------|
G|-------------16-18--------------------------------/19--------------------|
D|-22-21-19----------------------------------------------------------------|
A|-------------------------------------------------------------------------|
E|-------------------------------------------------------------------------|


Hold on A for keyboard solo.  Then strum the Intro chords.

Verse 3
e|-------------------------------------------------------------------------|
B|-----------------------------------------12--12-12h13p12-----12----------|
G|--------------------------------14---12-------------------14----14-12----|
D|-------------------------------------------------------------------------|
A|-----------------------7--5~~--------------------------------------------|
E|--0--0--2-0---0-2-3-2----------------------------------------------------|

e|-------------------------------17--17p15-17-17p15--17b-17b-17b-17b15-----|
B|-------------------------17-15----------------------------------------17-|
G|----------------11-12----------------------------------------------------|
D|-16-12-14---14--------12-------------------------------------------------|
A|-------------------------------------------------------------------------|
E|-------------------------------------------------------------------------|


The chords for this part are  E  D  C  You can figure out the strumming pattern


Verse 4
e|--------------------------14-15--17--20--19------------------------------|
B|---------13--------17----------------------------------------------------|
G|-16--16-----14-12--------------------------------------------------------|
D|-------------------------------------------------------------------------|
A|-------------------------------------------------------------------------|
E|-------------------------------------------------------------------------|

Outro  x6
e|-----------------------------------|-------------------------------------|
B|-----------------------------------|---3---------------------------------|
G|-----------------------------------|-------------------------------------|
D|--2--3---0---2---2--3-0-0---2------|---------2--2------------------------|
A|--2--3---0---2---2--3-0-0---2------|---------2--2------------------------|
E|-----------------------------------|---------0--0------------------------|





| b  bend
| /  slide up
| \  slide down
| h  hammer-on
| p  pull-off
| ~  vibrato
| +  harmonic
| x  Mute note
============================================================================
comments
print report bad tab
3 comments total.
0 reply
marlonjohn wrote on May 14 2007, 09:11 pm

cool! 5 stars! the best Castlevania Ost!^^, there Jazz here..

0 reply
Munshter wrote on August 17 2007, 09:52 pm

only the first note kinda sounded like it came from the song. idk, i guess it jus didn sound like it was tabbed well for guitar

0 reply
Bboy FireDragon wrote on July 31 2008, 12:28 am

nice! it sounds very good and a lot like da song

I want to post or [tab]
guest
You may want to rate the tab now too:
select rating
Please do not post tabs as comments. Select "correction" instead!