Oops, an error
Loading. Please wait.

Bloody Tears Tab

version 2
version 2

Whole song

Interactive

2,785 views 1 this week
no commentswrite comment
1 2 3 4 5
3 more votes to show rating
add to favorites
launch autoscroll
font size
0
reset
how to read this tab
guitar tuner
Autoscroll
slow
fast
+/-
esc
set tempo
stop
Help us to improve Ultimate-Guitar.com Take our survey!
×
Author
Difficulty
Tuning
novice
D G C F A D
I wasn't satisfied with any of the tabs for this song. They may have sounded
well but some were overly complicated or using the same string far too 
often. This has been made a bit easier. And yes easier means its not 
perfect. the palm muted notes have been removed entirely.


Tabbed by Aloehart

D tuning. Which means you tune all your strings down 1 full step from 
standard.



d|----14----10----10------------10-12-10--------------|
A|-12----12----14----14--12--14----------14-10-14-12--|
F|----------------------------------------------------| X2
C|----------------------------------------------------|
G|----------------------------------------------------|
D|----------------------------------------------------|



d|-------------------------------------------------------|
A|---10------------10-----------10------------10---------|
F|-9----11--9----9----11-9----9----11-9-11-12----11-12---|
C|------------12-----------12----------------------------|
G|-------------------------------------------------------|
D|-------------------------------------------------------|

d|-------------------------------------------------------9-|
A|---10------------10-----------10------------10----9-11---|
F|-9----11--9----9----11-9----9----11-9-11-12----11--------|
C|------------12-----------12------------------------------|
G|---------------------------------------------------------|
D|---------------------------------------------------------|


d|--9----9----9----9-11----9---|
A|----12---12---12------12-----| 
F|-----------------------------|  x2
C|-----------------------------|
G|-----------------------------|
D|-----------------------------|

Repeat from beginning as many times as you wish. Move the notes up and down
 the neck for different sounds. Personally after playing the first set i 
move to a 2 frets lower and after that i move 2 frets higher. 
Suggest correction
Give kudos to tab author, rate the tab!
1 2 3 4 5
comments
print report bad tab
guest
You may want to rate the tab now too:
select rating
Wanna post a correction for this tab? Suggest correction