Oops, an error
Loading. Please wait.

You Dont Know My Mind tab

2,146 views 3 this week
no commentswrite comment
1 2 3 4 5
1 last vote to show rating
add to favorites
×
Save as Personal and add changes to this tab that will be seen only by you. Learn more ›
×
You can save this tab as Personal to edit and correct it or add notes. All changes will be seen only by you. Learn more »
launch autoscroll
font size
0
reset
how to read this tab
guitar tuner
edit
Autoscroll
slow
fast
+/-
esc
set tempo
stop
Author
You Dont Know My Mind
Kenny Brown (metonymo tab)
From the album Stingray (2003).
Also called Wretched Mind in the album Goin Back to Mississippi (1996).



  G               G7    Gadd#9     G               G7
  |       .       .       .        |       .       .       .
|-----3---3-------1p0------------------3---3-------1-------1---------|
|-----0---0------(0)---------0---------0---0-------0-------0---------|
|*----0---0---------------3b--(3p)-----0---0-------0-------0---------|
|*----0---0----------------------------0---0---------------0---------|
|----------------(2)-------------------------------2-----------------|
|-3--------------------------------3---------------------------------|
I’m going to the racetrack, gonna see my pony     run,   yeah,


  G               G7               G               G7
  |       .       .       .        |       .       .       .
|-----3---3-------1p0------------------3---3-------1-------1---------|
|-----0---0------(0)---------0---------0---0-------0-------0---------|
|-----0---0---------------3b--(3p)-----0---0-------0-------0---------|
|-----0---0----------------------------0---0---------------0---------|
|----------------(2)-------------------------------2-----------------|
|-3--------------------------------3---------------------------------|
If I win some money,  baby, you know I’ll bring you some, say,   now,


  C               C7 
  |       .       .       .        |       .       .       .
|----0---0--------------------0--------0---0--------------------0----|
|----1---1--------------------1--------1---1--------------------1----|
|----0---0--------3b--(p)-----0--------0---0--------3b--(p)-----0----|
|----2---2--------------------2--------2---2--------------------2----|
|-3-----------------------3--------3------------------------3--------|
|--------------------------------------------------------------------|
  you   don’t    know a lot,      you    don’t     know    my 


  G              G7                G               G7
  |       .       .       .        |       .       .       .
|-----3---3-------1p0------------------3---3-------1-----------------|
|-----0---0------(0)---------0---------0---0-------0-----------------|
|-----0---0---------------3b--(3p)-----0---0-------0-----------------|
|-----0---0----------------------------0---0-------------------------|
|----------------(2)---------------------------------------2p0-------|
|-3--------------------------------3---------------3-----------------|
mind,                                                     Yeah, you 


  D             Dsus4 D            C
  |       .       .       .        |       .       .       .
|---------2-------3---2---2--2---------0---0--------------------0----|
|---------3-------3---3---3--3---------1---1--------------------1----|
|---------2-------2---2---2--2---------0---0--------3b--(p)-----0----|
|-0-----------------------0------------2---2--------------------2----|
|----------------------------------3------------------------3--------|
|--------------------------------------------------------------------|
 see     me    laughing, Lord, I’m laughing just to keep from 

                                                   1.________________
  G               G7    Gadd#9     G               G7
  |       .       .       .        |       .       .       .
|-----3---3-------1p0------------------3---3-------1-------1---------|
|-----0---0------(0)---------0---------0---0-------0-------0---------|
|-----0---0---------------3b--(3p)-----0---0-------0-------0--------*|
|-----0---0----------------------------0---0---------------0--------*|
|----------------(2)-------------------------------2-----------------|
|-3--------------------------------3---------------------------------|
 crying.

                                                   2.__(to coda)______
                                                   .       .
                                                 --1-----------------|
                                                 --0-----------------|
                                                 --0-----------------|
                                                 --------------------|
                                                 --2-------2p0-------|
                                                 --------------------|

Coda

  D            (Dsus4 D)           C
  |       .       .       .        |       .       .       .
|---------2-------3---2---2--2---------0---0--------------------0----|
|---------3-------3---3---3--3---------1---1--------------------1----|
|---------2-------2---2---2--2---------0---0--------3b--(p)-----0----|
|-0-----------------------0------------2---2--------------------2----|
|----------------------------------3------------------------3--------|
|--------------------------------------------------------------------|

  G
|----3-1p-------------------3---------
|----------3p-------------------------
|--------------3b-p-------------------
|-----------------------2p------------
|-------------------------------------
|-3------------------3------3---------



b=bend, p=pull-off, bp=bend and pull-off



G                                                  G7
Well I.m going to the racetrack, gonna see my pony run, yeah,
G                                                  G7
If I win some money, baby, you know I.ll bring you some, say,
             C         C7          C         C7      G         G7
        Now, you don.t know a lot, you don.t know my mind,
                  D
        Yeah, you see me laughing, Lord,
            C                C7        G           G7
        I.m laughing just to keep from crying.

Yeah, I hit my baby one time, lot of black under eye, yeah,
I would have cut her trout, but I scared she die, Lord,
        Now, you don.t know a lot, you don.t know my mind,
        Yeah, you see me laughing, Lord,
        I.m laughing just to keep from crying.

Yeah, gonna jerk my a pilen from my yards back bins,
Gonna whip my little baby, gonna teach her some sins, say,
        Now, you don.t know a lot, you don.t know my mind,
        Yeah, you see me laughing, Lord,
        I.m laughing just to keep from crying.

Watching me with a forge, guess so It wont run,
What you want with a woman, call or she will come, say,
        Now, you don.t know a lot, you don.t know my mind,
        Yeah, you see me laughing, Lord,
        I.m laughing just to keep from crying.

               Instr.

Yeah, I cut your trout, drinking blood like wine, Lord,
I ain.t afraid of living, yeah I ain.t afraid of dyin., say,
        Now, you don.t know a lot, you don.t know my mind,
        Yeah, you see me laughing, Lord,
        I.m laughing just to keep from crying.

Yeah, it takes rocks and grabble build a solid road,
Takes a good looking woman satisfy my soul, say,
        Now, you don.t know a lot, you don.t know my mind,
        Yeah, you see me laughing, Lord,
        I.m laughing just to keep from crying.

Yeah, now you don.t know a lot, a you don.t know, well,
A you don.t know my wretched mind, babe,
        You don.t know a lot, you don.t know my mind,
        Yeah, you see me laughing, Lord,
        I.m laughing just to keep from crying.

Yeah, now you don.t know a lot, a you don.t know, well,
A you don.t know my wretched mind, babe,
        You don.t know a lot, you don.t know my mind,
        Yeah, you see me laughing, Lord,
        I.m laughing just to keep from crying.

        Yeah, you see me laughing, Lord,
        I.m laughing just to keep from crying.

********
(metonymo @ mail . ru)

            
            
Suggest correction
Creating personal tab
Creating personal tab
You can edit any tab online and save it as your Personal.

You can edit, replace or remove any tab part or add personal notes – all changes will be seen only by you.

Personal tabs can be accessed anytime from any device, even offline.
Learn more »
Give kudos to tab author, rate the tab!
1 2 3 4 5
comments
print report bad tab
guest
You may want to rate the tab now too:
select rating
Wanna post a correction for this tab? Suggest correction