Oops, an error
Loading. Please wait.

Beer In Mexico intro tab

version 2
version 2

Intro

Whole song

11,088 views 15 this week
2 commentsread comments
1 2 3 4 5
x 5
add to favorites
×
Save as Personal and add changes to this tab that will be seen only by you. Learn more ›
×
You can save this tab as Personal to edit and correct it or add notes. All changes will be seen only by you. Learn more »
launch autoscroll
font size
0
reset
how to read this tab
guitar tuner
edit
Autoscroll
slow
fast
+/-
esc
set tempo
stop
Difficulty
e---------------------------|
B---------------------------|
G--6h7-7-7-7-7-7-6-7-9-9-7--|
D--0---0-0-0-0-0-0-0-0-0-0--|
A---------------------------|
E---------------------------|

This is the lead riff. This next tab is the second guitar in the backround. Listen to 
song to figure out where it goes.

e------------------------------|
B------------------------------|
G--9-7-6--6-7-6--9-7-6-9-7-6-7-|
D------------------------------|
A------------------------------|
E------------------------------|

            
            
Suggest correction
Creating personal tab
Creating personal tab
You can edit any tab online and save it as your Personal.

You can edit, replace or remove any tab part or add personal notes – all changes will be seen only by you.

Personal tabs can be accessed anytime from any device, even offline.
Learn more »
comments
print report bad tab
2 comments total.
0 reply
timmy3125 262 Jun 27, 2007 09:35 AM

You've got the 1st guitar right, but I'm pretty sure the notes that the 2nd guitar plays are higher than how you've got it tabbed. I think it's closer to this:
e------------------------------------|
B-10-8-7--7-8-7--10-8-7--8-7---------|
G--7-7-7--7-7-7---7-7-7--7-7-9-7-7---|
D------------------------------------|
A------------------------------------|
E------------------------------------|

Definitely a rockin song, and it sounds good either way

0 reply
dwarfcar21 441 Mar 29, 2008 03:42 PM

I think Timmy3125 is right

guest
Wanna post a correction for this tab? Suggest correction