Oops, an error
Loading. Please wait.

Live A Little tab

version 1
version 1

Whole song

113 views 1 this week
no commentswrite comment
1 2 3 4 5
3 more votes to show rating
add to favorites
×
Save as Personal and add changes to this tab that will be seen only by you. Learn more ›
×
You can save this tab as Personal to edit and correct it or add notes. All changes will be seen only by you. Learn more »
launch autoscroll
font size
0
reset
how to read this tab
guitar tuner
edit
Autoscroll
slow
fast
+/-
esc
set tempo
stop
LIVE A LITTLE 

e|--10-10-10------13---10-10-10--10-10-10--10-10-10------13---|
B|--8--8--8----13------8--8--8---8--8--8---8--8--8----13------|
G|------------------------------------------------------------|
D|------------------------------------------------------------|
A|------------------------------------------------------------|
E|------------------------------------------------------------|

e|--10-10-10--10-10-10--10-10-10------13---10-10-10--10-10-10--10-10-10-----13---|
B|--8--8--8---8--8--8---8--8--8---13-------8--8--8---8--8--8---8--8--8---13------|
G|-------------------------------------------------------------------------------|
D|-------------------------------------------------------------------------------|
A|-------------------------------------------------------------------------------|
E|-------------------------------------------------------------------------------|

e|--10-10-10--10-10-10--10-10-10------13--|
B|--8--8--8---8--8--8---8--8--8---13------|
G|----------------------------------------|
D|----------------------------------------|
A|----------------------------------------|
E|----------------------------------------|

e|--5--5--5h7--5--5h7--5h8--5h7--5-----5--5--5h7--5--5h7--5h8--5h7--5--|
B|--8--8--8----8--8----8----8----8-----8--8--8----8--8----8----8----8--|
G|---------------------------------------------------------------------|
D|---------------------------------------------------------------------|
A|---------------------------------------------------------------------|
E|---------------------------------------------------------------------|

e|--5--5--5h7--5--5h7--5h8--5h7--5-----5--5--5h7--5--5h7--5h8--5h7--5--|
B|--8--8--8----8--8----8----8----8-----8--8--8----8--8----8----8----8--|
G|---------------------------------------------------------------------|
D|---------------------------------------------------------------------|
A|---------------------------------------------------------------------|
E|---------------------------------------------------------------------|

e|--5--5--5h7--5--5h7--5h8--5h7--5-----5--5--5h7--5--5h7--5h8--5h7--5--|
B|--8--8--8----8--8----8----8----8-----8--8--8----8--8----8----8----8--|
G|---------------------------------------------------------------------|
D|---------------------------------------------------------------------|
A|---------------------------------------------------------------------|
E|---------------------------------------------------------------------|

e|--5--5--5h7--5--5h7--5h8--5h7--5---|
B|--8--8--8----8--8----8----8----8---|
G|-----------------------------------|
D|-----------------------------------|
A|-----------------------------------|
E|-----------------------------------|

 THIS SHOULD GIVE YOU AN IDEA FOR THIS PART OR ATLEAST HELP YOU
e|--------------------------------------------------------------------------|
B|--11-12-15-11--12-12--11-12-15-11-15-11-12--12-11-12-11--17--15-11-15-11--|
G|--12-12-12-12--12-12--12-12-12-12-12-12-12--12-12-12-12--12--12-12-12-12--|
D|--------------------------------------------------------------------------|
A|--------------------------------------------------------------------------|
E|--------------------------------------------------------------------------|

e|-----------------------------------------------|
B|-----------------------------------------------|
G|--7br-4-7--4br-2-4--7br-4-7--4b-4br-2-0--------|
D|-----------------------------------------------|
A|-----------------------------------------------|
E|-----------------------------------------------|

Cadd9
STRESSED OUT, RUNNING LATE, RACING DOWN THE INTERSTATE
G
SPILLED HOT COFFEE, DOWN THE FRONT OF MY JEANS
     Cadd9
IT’S WORK, WORK, PAY THE RENT, MONEY AND MY TIME’S SPENT
G
NOT A MINUTE LEFT FOR ME TO BE ME

     Cadd9                  Em      
BEEN GOING LIKE NOTHING CAN WAIT    
        Cadd9             D         
I GOTTA GET MY PRIORITIES STRAIGHT
              
I NEED TO  

Cadd9  G       D         Em
LIVE A LITTLE, HAVE SOME FUN
Cadd9     G     D           Em        
TAKE SOME TIME, WASTE IT ON NUMBER ONE
Cadd9  G         D               Em         Cadd9
FIND A GIRL THAT BRINGS MY WHOLE WORLD TO A STOP
Cadd9  D       
LIVE A LITTLE LOVE A LOT

e|-----------------------------------------------|
B|-----------------------------------------------|
G|--7br-4-7--4br-2-4--7br-4-7--4b-4br-2-0--------|
D|-----------------------------------------------|
A|-----------------------------------------------|
E|-----------------------------------------------|

Cadd9
FRIDAY NIGHT HERE WE GO DO A LITTLE DOSEY DOE
G
KICK BACK HAVE A LAUGH CATCHING MY BREATH
Cadd9
TELL THE BAND SLOW IT DOWN, THERE SHE IS, I THINK I FOUND
G                                     
MAYBE MS WONDERFUL I HAVEN’T MET YET   
   Cadd9                       Em     
IT JUST HIT ME LIKE A WRECKING BALL                                   
      Cadd9               D
SHE’S GIVING ME A WAKE UP CALL  

                                
Cadd9  G       D         Em
LIVE A LITTLE, HAVE SOME FUN
Cadd9     G     D           Em         E|------12-----12--14----|
TAKE SOME TIME, WASTE IT ON NUMBER ONE B|--14b----14b-----------|
Cadd9  G         D               Em         Cadd9
FIND A GIRL THAT BRINGS MY WHOLE WORLD TO A STOP
Cadd9  D       
LIVE A LITTLE LOVE A LOT

SOLO

Cadd9
STEP BACK, SMELL THE ROSE

FEEL THE SAND BETWEEN YOUR TOES
G
UNPLUG, UNWIND
D
STEP OUT IN THE SUNSHINE

Cadd9  G       D         Em
LIVE A LITTLE, HAVE SOME FUN
Cadd9     G     D           Em            
TAKE SOME TIME, WASTE IT ON NUMBER ONE 
Cadd9  G         D               Em         Cadd9
FIND A GIRL THAT BRINGS MY WHOLE WORLD TO A STOP
Cadd9  D       
LIVE A LITTLE LOVE A LOT

Cadd9  G       D         Em
LIVE A LITTLE, HAVE SOME FUN
Cadd9     G     D           Em            
TAKE SOME TIME, WASTE IT ON NUMBER ONE 
Cadd9    G           D            Em      Cadd9
TAKE THE GIRL, GET A MAP AND PICK ANY OLD DOT
Cadd9  D                  Cadd9  D 
LIVE A LITTLE, WE NEED TO LIVE A LITTLE, LOVE ALOT

e|-----------------------------------------------|
B|-----------------------------------------------|
G|--7br-4-7--4br-2-4--7br-4-7--4b-4br-2-0--------|
D|-----------------------------------------------|
A|-----------------------------------------------|
E|-----------------------------------------------|

e|--5--5--5h7--5--5h7--5h8--5h7--5-----5--5--5h7--5--5h7--5h8--5h7--5--|
B|--8--8--8----8--8----8----8----8-----8--8--8----8--8----8----8----8--|
G|---------------------------------------------------------------------|
D|---------------------------------------------------------------------|
A|---------------------------------------------------------------------|
E|---------------------------------------------------------------------|

END ON G CHORD

            
            
Suggest correction
Creating personal tab
Creating personal tab
You can edit any tab online and save it as your Personal.

You can edit, replace or remove any tab part or add personal notes – all changes will be seen only by you.

Personal tabs can be accessed anytime from any device, even offline.
Learn more »
Give kudos to tab author, rate the tab!
1 2 3 4 5
comments
print report bad tab
guest
You may want to rate the tab now too:
select rating
Wanna post a correction for this tab? Suggest correction