Oops, an error
Loading. Please wait.

Old Blue Chair Tab

version 1
version 1

Whole song

49,859 views 12 this week
2 commentsread comments
1 2 3 4 5
x 6
add to favorites
launch autoscroll
font size
0
reset
how to read this tab
guitar tuner
Autoscroll
slow
fast
+/-
esc
set tempo
stop
Help us to improve Ultimate-Guitar.com Take our survey!
×
Author
Capo
2nd fret
OLD BLUE CHAIR by Kenny Chesney
**Capo 2nd**
Chords:
E-022100
A-002200
B-024400

Intro:E           A            B            E
e|-0-----0-----------0-----0------0-----0------0-----0----|
B|--0-0-------0--0----0-0---0-0----0-0---0-0----0-0---0-0-|
G|---1-------1--1---2--2-----2---4--4-----4------1-----1--|
D|------2--2---2---2------2-----4------4------2-----2-----|
A|-----2----------0------0-----2------2------2-----2------|
E|------------------------------------------0-------------|

Verse1:there's a (start verse) blue rockin chair......
Verse2:from that (start verse) chair i've caught......
   E             A            E            B
e|----0-----0-------0-----0------0-----0------0-----0-----|
B|-------0-----0-------0-----0------0-----0------0-----0--|
G|------1-----1----2--2-----2------1-----1---4--4-----4---|
D|---2-2---2-2----2--2---2-2----2-2---2-2---4--4---4-4----|
A|--2-----2-----0-------0------2-----2-----2------2-------|
E|-0--------------------------0---------------------------|
  it (next line) sways back n' forth.........
  i let (next line) go of a lover............
   E             A            E            B
e|----0-----0-------0-----0------0-----0------0-----0-----|
B|-------0-----0-------0-----0------0-----0------0-----0--|
G|------1-----1----2--2-----2------1-----1---4--4-----4---|
D|---2-2---2-2----2--2---2-2----2-2---2-2---4--4---4-4----|
A|--2-----2------0------0------2-----2-----2------2-------|
E|-0--------------------------0---------------------------|

Chorus: i've (start chorus) read alotta books......
   A     B     E            A            B
e|----0-----0-----0-----0------0-----0------0-----0-------|
B|------0-----0------0-----0------0-----0------0-----0----|
G|---2-----4--------1-----1---2--2-----2---4--4-----4-----|
D|--2--2--4--4---2-2---2-2---2--2---2-2---4--4---4-4------|
A|-0-----2------2-----2-----0------0-----2------2---------|
E|-------------0------------------------------------------|
  to (Next line) the way that i see it......
   A            B            A     B
e|----0-----0------0-----0------0-----0-----0-----0-------|
B|-------0-----0------0-----0-----0-----0------0-----0----|
G|---2--2-----2---4--4-----4---2-----4--------1-----1-----|
D|--2--2---2-2---4--4---4-4---2--2--4--4---2-2---2-2------|
A|-0------0-----2------2-----0-----2------2-----2---------|
E|---------------------------------------0----------------|

Then Strum:
     A
that chair was my bed one new year's night
       E
when i passed out from too much malibu and diet
      A                                     B
and i woke up to a hundred mosquito bites i swear
      A                B                       E
got'm all sittin right there, in that old blue chair

pick verse 1 again
then play intro
Suggest correction
comments
print report bad tab
2 comments total.
-1 reply
mellowilly 10 Aug 09, 2008 09:43 PM

It's G,C,D and Am...

-1 reply
mellowilly 10 Aug 09, 2008 09:49 PM

I know it's the same chords but I don't think he plays with a capo

guest
You may want to rate the tab now too:
select rating
Wanna post a correction for this tab? Suggest correction