Oops, an error
Loading. Please wait.

Rich And Miserable Tab

37 views 9 this week
no commentswrite comment
1 2 3 4 5
2 more votes to show rating
add to favorites
launch autoscroll
font size
0
reset
how to read this tab
guitar tuner
Autoscroll
slow
fast
+/-
esc
set tempo
stop
Help us to improve Ultimate-Guitar.com Take our survey!
×
RICH AND MISERABLE 

[Intro]
e|---------------------------------------------------------------------------------|
B|---------------------------------------------------------------------------------|
G|---------------------------------------------------------------------------------|
D|--3-3-3-3--3-3-3-3---------------------6-6-6-6--6-6-6-6--6-6-6-6--6-6-6-6--------|PALM MUTE THESE 
A|--1-1-1-1--1-1-1-1---4-4-4-4--4-4-4-4--4-4-4-4--4-4-4-4--4-4-4-4--4-4-4-4--------|CHORDS
E|---------------------2-2-2-2--2-2-2-2--------------------------------------------|

e|---------------------------------------------------------------------------------|
B|---------------------------------------------------------------------------------|
G|---------------------------------------------------------------------------------|
D|--3-3-3-3--3-3-3-3---------------------6-6-6-6--6-6-6-6--6-6-6-6--6-6-6-6--------|
A|--1-1-1-1--1-1-1-1---4-4-4-4--4-4-4-4--4-4-4-4--4-4-4-4--4-4-4-4--4-4-4-4--------|
E|---------------------2-2-2-2--2-2-2-2--------------------------------------------|

[Verse]
e|---------------------------------------------------------------------------------|
B|---------------------------------------------------------------------------------|
G|---------------------------------------------------------------------------------|
D|--3-3-3-3--3-3-3-3-----------------------6-6-6-6--6-6-6-6--6-6-6-6--6-6-6-6------|
A|--1-1-1-1--1-1-1-1-----4-4-4-4--4-4-4-4--4-4-4-4--4-4-4-4--4-4-4-4--4-4-4-4------|
E|-----------------------2-2-2-2--2-2-2-2------------------------------------------|
    GREEN GRASS HOPE THE COWS GRAZE                 HEDGE FUND 401

e|-----------------------------------------------------------------------------------|
B|-----------------------------------------------------------------------------------|
G|-----------------------------------------------------------------------------------|
D|--3-3-3-3--3-3-3-3----------------------------6-6-6-6--6-6-6-6--6-6-6-6--6-6-6-6---|
A|--1-1-1-1--1-1-1-1---4-4-4-4--4-4-4-4---------4-4-4-4--4-4-4-4--4-4-4-4--4-4-4-4---|
E|---------------------2-2-2-2--2-2-2-2----------------------------------------------|
    CAKE MILK AND      HONEY IN THE LAND OF THE FREE

e|-----------------------------------------------------------------------------------|
B|-----------------------------------------------------------------------------------|
G|--8-8-8-8--8-8-8-8--8-8-8-8--8-8-8-8----6-6-6-6--6-6-6-6--6-6-6-6--6-6-6-6---------|
D|--8-8-8-8--8-8-8-8--8-8-8-8--8-8-8-8----6-6-6-6--6-6-6-6--6-6-6-6--6-6-6-6---------|
A|--6-6-6-6--6-6-6-6--6-6-6-6--6-6-6-6----4-4-4-4--4-4-4-4--4-4-4-4--4-4-4-4---------|
E|-----------------------------------------------------------------------------------|
    NEW YORK TIMES FARMERS ALMANAC        TOO BUSY TO CALL OUR MOMMA

e|-----------------------------------------------------------------------------------|
B|-----------------------------------------------------------------------------------|
G|-----------------------------------------------------------------------------------|
D|--3-3-3-3--3-3-3-3----------------------------6-6-6-6--6-6-6-6--6-6-6-6--6-6-6-6---|
A|--1-1-1-1--1-1-1-1---4-4-4-4--4-4-4-4---------4-4-4-4--4-4-4-4--4-4-4-4--4-4-4-4---|
E|---------------------2-2-2-2--2-2-2-2----------------------------------------------|
    BACK PORCH AIN’T   WHAT IT USE TO           BE

[Chorus]
e|----------------------------------------------------------------------------|
B|----------------------------------------------------------------------------|
G|----3-----------------------------------------------------------------------|
D|----3-------------4-------------------6-------------------------------------|
A|----1-------------4-------------------6-------------------------------------|
E|------------------2-------------------4-------------------------------------|
   WE DON’T WHAT WE WANT BUT WE WANT IT AND WE WANT IT ALL RIGHT NOW

e|------------------------------------------------------------------------------------|
B|------------------------------------------------------------------------------------|
G|--3-----------------------------------------6---------------------------------------|
D|--3------------------4----------------------6---------------------------------------|
A|--1------------------4----------------------4---------------------------------------|
E|---------------------2--------------------------------------------------------------|
    WE’RE TOO YOUNG    UNTIL WE’RE TOO OLD    WE’RE ALL LOST ON THE YELLOW BRICK ROAD

e|------------------------------------------------------------------------------------|
B|------------------------------------------------------------------------------------|
G|--3--------------------------------------6------------------------------------------|
D|--3------------------4-------------------6------------------------------------------|
A|--1------------------4-------------------4------------------------------------------|
E|---------------------2--------------------------------------------------------------|
    WE CLIMB THE       LADDER JUST GROWS   WE’RE BORN, WE WORK, WE DIE, IT’S SPIRITUAL
    LADDER BUT THE

e|------------------------------------------------------------------------------------|
B|------------------------------------------------------------------------------------|
G|--3-----------------------------------------6---------------------------------------|
D|--3------------------4----------------------6---------------------------------------|
A|--1------------------4----------------------4---------------------------------------|
E|---------------------2--------------------------------------------------------------|
    ENOUGH IS          NEVER ENOUGH           AMERICAN DREAM NEVER WAKES UP

e|------------------------------------------------------------------------------------|
B|------------------------------------------------------------------------------------|
G|--3-----------------------------------6---------------------------------------------|
D|--3------------------4----------------6---------------------------------------------|
A|--1------------------4----------------4---------------------------------------------|
E|---------------------2--------------------------------------------------------------|
    TOO MUCH IS        NEVER TOO MUCH   WE WON’T BE HAPPY TIL WE’RE RICH AND MISERABLE

[Intro]
e|------------------------------------------------------------------------------------|
B|------------------------------------------------------------------------------------|
G|------------------------------------------------------------------------------------|
D|--3-3-3-3--3-3-3-3--------------------6-6-6-6--6-6-6-6--6-6-6-6--6-6-6-6------------|
A|--1-1-1-1--1-1-1-1--4-4-4-4--4-4-4-4--4-4-4-4--4-4-4-4--4-4-4-4--4-4-4-4------------|
E|--------------------2-2-2-2--2-2-2-2------------------------------------------------|

[Verse]
e|------------------------------------------------------------------------------------|
B|------------------------------------------------------------------------------------|
G|------------------------------------------------------------------------------------|
D|--3-3-3-3--3-3-3-3--------------------6-6-6-6--6-6-6-6--6-6-6-6--6-6-6-6------------|
A|--1-1-1-1--1-1-1-1--4-4-4-4--4-4-4-4--4-4-4-4--4-4-4-4--4-4-4-4--4-4-4-4------------|
E|--------------------2-2-2-2--2-2-2-2------------------------------------------------|
    GO TO SCHOOL TO   GET A JOB         DON’T MAKE ENOUGH TO PAY IT

e|------------------------------------------------------------------------------------|
B|------------------------------------------------------------------------------------|
G|------------------------------------------------------------------------------------|
D|--3-3-3-3--3-3-3-3--------------------6-6-6-6--6-6-6-6--6-6-6-6--6-6-6-6------------|
A|--1-1-1-1--1-1-1-1--4-4-4-4--4-4-4-4--4-4-4-4--4-4-4-4--4-4-4-4--4-4-4-4------------|
E|--------------------2-2-2-2--2-2-2-2------------------------------------------------|
    OFF AND           ON AND ON IT      GOES

e|------------------------------------------------------------------------------------|
B|------------------------------------------------------------------------------------|
G|------------------------------------------------------------------------------------|
D|--3-3-3-3--3-3-3-3------------------------------6-6-6-6--6-6-6-6--6-6-6-6--6-6-6-6--|
A|--1-1-1-1--1-1-1-1------4-4-4-4--4-4-4-4--------4-4-4-4--4-4-4-4--4-4-4-4--4-4-4-4--|
E|------------------------2-2-2-2--2-2-2-2--------------------------------------------|
    RIGHT WING BLUE JEAN  GOTTA GET THE NEW THING WHATEVER IT TAKES TO MAKE THE WORLD
                                                 LOOK AT YOU THING

[Chorus]
e|------------------------------------------------------------------------------------|
B|------------------------------------------------------------------------------------|
G|--3-----------------------------------------6---------------------------------------|
D|--3------------------4----------------------6---------------------------------------|
A|--1------------------4----------------------4---------------------------------------|
E|---------------------2--------------------------------------------------------------|
    WE’RE TOO YOUNG    UNTIL WE’RE TOO OLD    WE’RE ALL LOST ON THE YELLOW BRICK ROAD

e|------------------------------------------------------------------------------------|
B|------------------------------------------------------------------------------------|
G|--3--------------------------------------6------------------------------------------|
D|--3------------------4-------------------6------------------------------------------|
A|--1------------------4-------------------4------------------------------------------|
E|---------------------2--------------------------------------------------------------|
    WE CLIMB THE       LADDER JUST GROWS   WE’RE BORN, WE WORK, WE DIE, IT’S SPIRITUAL
    LADDER BUT THE

e|------------------------------------------------------------------------------------|
B|------------------------------------------------------------------------------------|
G|--3-----------------------------------------6---------------------------------------|
D|--3------------------4----------------------6---------------------------------------|
A|--1------------------4----------------------4---------------------------------------|
E|---------------------2--------------------------------------------------------------|
    ENOUGH IS          NEVER ENOUGH           AMERICAN DREAM NEVER WAKES UP

e|------------------------------------------------------------------------------------|
B|------------------------------------------------------------------------------------|
G|--3--------------------------------------6------------------------------------------|
D|--3------------------4-------------------6------------------------------------------|
A|--1------------------4-------------------4------------------------------------------|
E|---------------------2--------------------------------------------------------------|
    TOO MUCH IS        NEVER TOO MUCH   WE WON’T BE HAPPY TIL WE’RE RICH AND MISERABLE

[Instrumental]
e|------------------------------------------------------------------------------------|
B|------------------------------------------------------------------------------------|
G|--3-3-3-3--3-3-3-3--------------------6-6-6-6--6-6-6-6--6-6-6-6--6-6-6-6------------|
D|--3-3-3-3--3-3-3-3--4-4-4-4--4-4-4-4--6-6-6-6--6-6-6-6--6-6-6-6--6-6-6-6------------|
A|--1-1-1-1--1-1-1-1--4-4-4-4--4-4-4-4--4-4-4-4--4-4-4-4--4-4-4-4--4-4-4-4------------|
E|--------------------2-2-2-2--2-2-2-2------------------------------------------------|

e|------------------------------------------------------------------------------------|
B|------------------------------------------------------------------------------------|
G|--3-3-3-3--3-3-3-3--------------------6-6-6-6--6-6-6-6--6-6-6-6--6-6-6-6------------|
D|--3-3-3-3--3-3-3-3--4-4-4-4--4-4-4-4--6-6-6-6--6-6-6-6--6-6-6-6--6-6-6-6------------|
A|--1-1-1-1--1-1-1-1--4-4-4-4--4-4-4-4--4-4-4-4--4-4-4-4--4-4-4-4--4-4-4-4------------|
E|--------------------2-2-2-2--2-2-2-2------------------------------------------------|

[Verse]
e|----------------------------------------------------------------------------------|
B|----------------------------------------------------------------------------------|
G|----------------------------------------------------------------------------------|
D|--3-3-3-3--3-3-3-3--------------------------6-6-6-6--6-6-6-6--6-6-6-6--6-6-6-6----|
A|--1-1-1-1--1-1-1-1--------4-4-4-4--4-4-4-4--4-4-4-4--4-4-4-4--4-4-4-4--4-4-4-4----|
E|--------------------------2-2-2-2--2-2-2-2----------------------------------------|
    AND MAYBE WE’LL GET IT  MAYBE WE          WON’T             BUT EVEN WHEN WE

e|------------------------------------------------------------------------------------|
B|------------------------------------------------------------------------------------|
G|------------------------------------------------------------------------------------|
D|--3-3-3-3--3-3-3-3--------------------6-6-6-6--6-6-6-6--6-6-6-6--6-6-6-6------------|
A|--1-1-1-1--1-1-1-1--4-4-4-4--4-4-4-4--4-4-4-4--4-4-4-4--4-4-4-4--4-4-4-4------------|
E|--------------------2-2-2-2--2-2-2-2------------------------------------------------|
    GET IT            REALLY WE         DON’T

[Chorus]
e|------------------------------------------------------------------------------------|
B|------------------------------------------------------------------------------------|
G|--3-----------------------------------------6---------------------------------------|
D|--3------------------4----------------------6---------------------------------------|
A|--1------------------4----------------------4---------------------------------------|
E|---------------------2--------------------------------------------------------------|
    WE’RE TOO YOUNG    UNTIL WE’RE TOO OLD    WE’RE ALL LOST ON THE YELLOW BRICK ROAD

e|------------------------------------------------------------------------------------|
B|------------------------------------------------------------------------------------|
G|--3--------------------------------------6------------------------------------------|
D|--3------------------4-------------------6------------------------------------------|
A|--1------------------4-------------------4------------------------------------------|
E|---------------------2--------------------------------------------------------------|
    WE CLIMB THE       LADDER JUST GROWS   WE’RE BORN, WE WORK, WE DIE, IT’S SPIRITUAL
    LADDER BUT THE

e|------------------------------------------------------------------------------------|
B|------------------------------------------------------------------------------------|
G|--3-----------------------------------------6---------------------------------------|
D|--3------------------4----------------------6---------------------------------------|
A|--1------------------4----------------------4---------------------------------------|
E|---------------------2--------------------------------------------------------------|
    ENOUGH IS          NEVER ENOUGH           AMERICAN DREAM NEVER WAKES UP

e|------------------------------------------------------------------------------------|
B|------------------------------------------------------------------------------------|
G|--3--------------------------------------6------------------------------------------|
D|--3------------------4-------------------6------------------------------------------|
A|--1------------------4-------------------4------------------------------------------|
E|---------------------2--------------------------------------------------------------|
    TOO MUCH IS        NEVER TOO MUCH   WE WON’T BE HAPPY TIL WE’RE RICH AND MISERABLE

[Outro]
e|------------------------------------------------------------------------------------|
B|------------------------------------------------------------------------------------|
G|--3-----6-----------------------------------3-----6---------------------------------|
D|--3--4--6-----------------------------------3--4--6---------------------------------|
A|--1--4--4-----------------------------------1--4--4---------------------------------|
E|-----2-----------------------------------------2------------------------------------|
            COME ON GET RICH AND MISERABLE             COME ON GET RICH AND MISERABLE
Suggest correction
Give kudos to tab author, rate the tab!
1 2 3 4 5
comments
print report bad tab
guest
You may want to rate the tab now too:
select rating
Wanna post a correction for this tab? Suggest correction