Oops, an error
Loading. Please wait.

Setting The World On Fire chords

version 1
version 1

Whole song

25,663 views 156 this week
2 commentsread comments
1 2 3 4 5
x 51
add to favorites
×
Save as Personal and add changes to this tab that will be seen only by you. Learn more ›
×
You can save this tab as Personal to edit and correct it or add notes. All changes will be seen only by you. Learn more »
launch autoscroll
font size
0
reset
transpose
0
reset
display chords
guitar tuner
edit
Autoscroll
slow
fast
+/-
esc
set tempo
stop
Strumming
There is no strumming pattern for this song yet. and get +5 IQ
SETTING THE WORLD ON FIRE - Kenny Chesney feat. Pink


[Intro] 

(this is played throughout the song in the background)

e|-----------------------------------------------------|
B|-----------------------------------------------------|
G|---9-----9-----7-----7-----7-----7-----7-----7-------|
D|-----10----10----10----10----10----10----10----10----|
A|-----------------------------------------------------|
E|-----------------------------------------------------|

e|-----------------------------------------------------|
B|-----------------------------------------------------|
G|---9-----9-----7-----7-----7-----7-----7-----7-------|
D|-----10----10----10----10----10----10----10----10----|
A|-----------------------------------------------------|
E|-----------------------------------------------------|

e|-----------------------------------------------------|
B|-----------------------------------------------------|
G|---9-----9-----7-----7-----7-----7-----7-----7-------|
D|-----10----10----10----10----10----10----10----10----|
A|-----------------------------------------------------|
E|-----------------------------------------------------|

e|-----------------------------------------------------|
B|-----------------------------------------------------|
G|---9-----9-----7-----7-----7-----7-----7-----7-------|
D|-----10----10----10----10----10----10----10----10----|
A|-----------------------------------------------------|
E|-----------------------------------------------------|

e|-----------------------------------------------------|
B|-----------------------------------------------------|
G|---9-----9-----7-----7-----7-----7-----7-----7-------|
D|-----10----10----10----10----10----10----10----10----|
A|-----------------------------------------------------|
E|-----------------------------------------------------|


[Verse 1]

            C        G          F
Yeah we got drunk on la cienega boulevard
C                  G                      F
Taking pictures of people we thought were stars
C            G               F
It's easy to give in to your heart
          C        G          F
When your drunk on la cienega boulevard


[Pre-Chorus]

C
When the song coming out of the speakers
F
Was the band that you had on your t-shirt
C                                               F
We were screaming cause all of the streets were empty and you kissed me


[Chorus]

            C      G                 F
And we were up all night and we were feeling so good
        C            G              F
Yeah we got a little higher than we probably should
             C     G              F
We were in a hotel singing in the hallway lights
        C            G                     F
We were striking the matches right down to the ashes
            C        F
Setting the world on fire
            C        F
Setting the world on fire


[Verse 2]

  C                   G               F
I wrote I love you in lipstick on the mirror
        C                       G                       F
We were shouting out the window like they could hear us at the pier
            C                G             F
Said do you think we'll live forever as we killed another beer
        C                   G               F
And you wrote I love you in lipstick on the mirror


[Pre-Chorus]

            C
And we were laughing until we were breathless 
F
Never felt anything so reckless
C                                   F
We were all lit up and restless and coming alive


[Chorus]

            C      G                 F
And we were up all night and we were feeling so good
        C            G              F
Yeah we got a little higher than we probably should
             C     G              F
We were in a hotel singing in the hallway lights
        C            G                     F
We were striking the matches right down to the ashes
            C        F
Setting the world on fire
            C        F
Setting the world on fire oh yeah yeah


[Solo]

C  G  F   C  G  F


[Chorus]

            C      G                 F
And we were up all night and we were feeling so good
        C            G              F
Yeah we got a little higher than we probably should
             C     G              F
We were in a hotel singing in the hallway lights
        C            G                     F
We were striking the matches right down to the ashes
            C        F
Setting the world on fire
            C        F
Setting the world on fire

 
[Outro]

C   G      F
Wor-rld on fire
                    C   G      F
We were setting the wor-rld on fire
                    C   G      F
We were setting the wor-rld on fire
C   G      F
Wor-rld on fire

            
            
Suggest correction
Creating personal tab
Creating personal tab
You can edit any tab online and save it as your Personal.

You can edit, replace or remove any tab part or add personal notes – all changes will be seen only by you.

Personal tabs can be accessed anytime from any device, even offline.
Learn more »
comments
print report bad tab
2 comments total.
0 reply
blur819 1,341 Aug 05, 2016 06:58 AM, edited at 10:59 am

Nice. Good work. Maybe a G in the final parts to the chorus???

C G - F

Setting the world on fire

Five * man!

0 reply
CountryGirl1927 10 Aug 19, 2016 05:34 PM

Looks good to me! Such a fun song! Thanks!

guest
You may want to rate the tab now too:
select rating
Wanna post a correction for this tab? Suggest correction