Oops, an error
Loading. Please wait.

The Road And The Radio Tab

1,965 views 1 this week
no commentswrite comment
1 2 3 4 5
please rate
add to favorites
launch autoscroll
font size
0
reset
how to read this tab
guitar tuner
Autoscroll
slow
fast
+/-
esc
set tempo
stop
Help us to improve Ultimate-Guitar.com Take our survey!
×
Author
-------------------------------------------------------------------------------
                             The road and the radio-Kenny Chesney
-------------------------------------------------------------------------------
Tabbed by:dwarfcar21
Email:wally_kai_harper@yahoo.com

Tuning:standard

I tabbed this out since there were no full tabs. ALL ear transcribed so watch the 
criticism. THANKS AND ENJOY!:)
Intro:

Guitar 1:electric

e|---------------------------------------------------------------4-----------|
B|----2-4-2-------2-4-2----2-4-2----2-4-2---2-4-2----2-4-2-----2---2---------|
G|--1-----------1--------1--------1-------1--------1---------1-------1-------|
D|---------------------------------------------------------------------------|
A|---------------------------------------------------------------------------|
E|---------------------------------------------------------------------------|

Verse 1:acoustic

e|-----------------------------------|
B|---2-2-x-2-2-2---------------------|
G|---1-1-x-1-1-1---------------------|
D|-----------------------------------|
A|-----------------------------------|play as many times
E|-----------------------------------|

Guitar 1:listen for timing

Guitar 1:electric

e|-----------|
B|----4p2----|
G|-----------|
D|-----------|
A|-----------|
E|-----------|x12

e|----4-----|
B|--2---4-2-|
G|-1--------|
D|----------|
A|----------|
E|----------|right before the chorus he plays this.

Chorus:listen for timing.

acoustic

e|-----------------------------------|
B|---2-2-x-2-2-2---------------------|
G|---1-1-x-1-1-1---------------------|
D|-----------------------------------|
A|-----------------------------------|
E|-----------------------------------|

Guitar 2:electric

e|---------------------------------------------------------4----------------|
B|--------------2-------2-4-2----------------2-4-2---2-4-2---2--------------|
G|-1------------2-----1---------0-0-2h3----1-------1------------------------|
D|-2------------2-----------------------------------------------------------|
A|-2------------0-----------------------------------------------------------|
E|-0-1/2-3------------------------------------------------------------------|then repeat.

Guitar 1:listen for timing

Guitar 1:electric

e|-----------|
B|----4p2----|
G|-----------|
D|-----------|
A|-----------|
E|-----------|x6

e|----------------------------4--4---4---4-----------------------------------|
B|----6p4-6p4-6p4-6p4-6p4-6p4--4---4---4-------------------------------------|
G|---------------------------------------------------------------------------|
D|---------------------------------------------------------------------------|
A|---------------------------------------------------------------------------|
E|---------------------------------------------------------------------------|

Verse 2:acoustic

e|-----------------------------------|
B|---2-2-x-2-2-2---------------------|
G|---1-1-x-1-1-1---------------------|
D|-----------------------------------|
A|-----------------------------------|play as many times
E|-----------------------------------|

e|-----------------------------------|
B|---2-2-x-2-2-2---------------------|
G|---1-1-x-1-1-1---------------------|
D|-----------------------------------|
A|-----------------------------------|play as many times
E|-----------------------------------|

middle of verse guitar goes...once
e|-----|
B|--2--|
G|-1-1-|
D|-----|
A|-----|
E------|

back to...

e|-----------------------------------|
B|---2-2-x-2-2-2---------------------|
G|---1-1-x-1-1-1---------------------|
D|-----------------------------------|
A|-----------------------------------|play as many times
E|-----------------------------------|

Chorus:mini solo.


acoustic

e|-----------------------------------|
B|---2-2-x-2-2-2---------------------|
G|---1-1-x-1-1-1---------------------|
D|-----------------------------------|
A|-----------------------------------|
E|-----------------------------------|

Guitar 2:electric

e|---------------------------------------------------------4----------------|
B|--------------2-------2-4-2----------------2-4-2---2-4-2---2--------------|
G|-1------------2-----1---------0-0-2h3----1-------1------------------------|
D|-2------------2-----------------------------------------------------------|
A|-2------------0-----------------------------------------------------------|
E|-0-1/2-3------------------------------------------------------------------|then repeat.

Mini solo

e|-----------------------------------------------------------------14-14-14-14--------|
B|-----------------14-14-14-14/20-20p17/0--------12h14-14-14-14-14-14-14-14-14-14h16/0|
G|-----------12h14----------------------------12--------------------------------------|
D|---------12-------------------------------------------------------------------------|
A|----9h11----------------------------------------------------------------------------|
E|--9---------------------------------------------------------------------------------|

acoustic

e|-----------------------------------|
B|---2-2-x-2-2-2---------------------|
G|---1-1-x-1-1-1---------------------|
D|-----------------------------------|
A|-----------------------------------|
E|-----------------------------------|

Guitar 2:electric

e|---------------------------------------------------------4----------------|
B|--------------2-------2-4-2----------------2-4-2---2-4-2---2--------------|
G|-1------------2-----1---------0-0-2h3----1-------1------------------------|
D|-2------------2-----------------------------------------------------------|
A|-2------------0-----------------------------------------------------------|
E|-0-1/2-3------------------------------------------------------------------|then repeat.

SOLO:guitar 1

e|---------------------/13-14\11--14-11-------------------------------/21|
B|--------------------3-----------------15----------------10-10--15-15---|
G|--------5/7-9\0-3h5-------------------------------10-10----------------|
D|--0-5h7-------------------------------------12-12----------------------|
A|-----------------------------------------------------------------------|
E|-----------------------------------------------------------------------|

e|--x-x-21------12h14----------------14----15-15----15-15----15-15----15---|
B|--x-x------12-------14b-14b--12h15-------------19-------19-------19---19-|
G|--x-x--------------------------------------------------------------------|
D|--x-x--------------------------------------------------------------------|
A|-------------------------------------------------------------------------|
E|-------------------------------------------------------------------------|

e|-15-15-15-15-15-15-15-15---------------------------------------------------|
B|-19-19-19-19-19-19-19-19----18-18-18-18-18-18-14br----/12~-14-12-10-12p10--|
G|---------------------------------------------------------------------------|
D|---------------------------------------------------------------------------|
A|---------------------------------------------------------------------------|
E|---------------------------------------------------------------------------|

e|---------------------------------------------------------------------------|
B|-13p10--12-12h14-10-10h12-7-7h9-5-5h7-5h7-/14~~~-/9-/4--/7-----------------|
G|---------------------------------------------------------------------------|
D|---------------------------------------------------------------------------|
A|---------------------------------------------------------------------------|
E|---------------------------------------------------------------------------|

OUTRO

Guitar 1:electric

e|-----------|
B|----4p2----|
G|-----------|
D|-----------|
A|-----------|
E|-----------|x6

e|----------------------------4--4---4---4-----------------------------------|
B|----6p4-6p4-6p4-6p4-6p4-6p4--4---4---4-------------------------------------|
G|---------------------------------------------------------------------------|
D|---------------------------------------------------------------------------|
A|---------------------------------------------------------------------------|
E|---------------------------------------------------------------------------|

Guitar 2:electric

e|---------|
B|---------|
G|-1-------|
D|-2-------|
A|-2-------|
E|-0-1/2-3-|

| b bend
| /  slide up
| \  slide down
| h  hammer-on
| p  pull-off
| ~  vibrato
| +  harmonic
| x  Mute note
===============================================================================
Suggest correction new What's this?
You can suggest a correction to this tab. Community and Mods will review your correction and vote to approve or reject it.
comments
We did not receive enough feedback on this tab! Please rate:
print report bad tab
1 2 3 4 5
guest
You may want to rate the tab now too:
select rating
Please do not post tabs as comments. Select "correction" instead!