Oops, an error
Loading. Please wait.

There Goes My Life intro tab

version 1
version 1

Intro

Whole song

18,850 views 9 this week
8 commentsread comments
1 2 3 4 5
x 14
add to favorites
×
Save as Personal and add changes to this tab that will be seen only by you. Learn more ›
×
You can save this tab as Personal to edit and correct it or add notes. All changes will be seen only by you. Learn more »
launch autoscroll
font size
0
reset
how to read this tab
guitar tuner
edit
Autoscroll
slow
fast
+/-
esc
set tempo
stop
Author
Difficulty
Ok I think this is like right on but not sure bout the ½ 2 in the first line or what
Um... please make comments. And also some of the notes are kinda hard to hear so before you
im wrong listen over really hard for em and if you don't hear them then dont do nothing 
you prolly suck really bad rofl!!
Have fun =)

no capos or anything and it is standard tuning

p=pull off
h=hammer on
/=slide
x=dead note

e--------------0---------------0------------------------------------|
b—0-----------------------------------------0-----------------------|
g------2p1---------4----2---------1/2---2--------x------------------|
d------------------------------------------------2/4----4-----------|
a-------------------------------------------------------------------|
e-------------------------------------------------------------------|


e---------------0----------------0----------------------------------|
b----0--------------------------------------------------------------|
g--------2p1--------4----2----------1-1--2---4------x---------------|
d---------------------------------------------------2h4-------------|
a-------------------------------------------------------------------|
e-------------------------------------------------------------------|

            
            
Suggest correction
Creating personal tab
Creating personal tab
You can edit any tab online and save it as your Personal.

You can edit, replace or remove any tab part or add personal notes – all changes will be seen only by you.

Personal tabs can be accessed anytime from any device, even offline.
Learn more »
comments
print report bad tab
8 comments total. Showing first comments.
0 reply
bandfreak73 104 Aug 17, 2006 08:20 PM

ITS GREAT SPANK U VERY MUCH

0 reply
Adam223 88 Aug 20, 2006 05:31 PM

thanks and your welcome

0 reply
uncballer11 16 Sep 01, 2006 08:13 PM

i love you. thank you mucho.

guest
You may want to rate the tab now too:
select rating
Wanna post a correction for this tab? Suggest correction