Oops, an error
Loading. Please wait.

Til Its Gone tab

211 views 12 this week
no commentswrite comment
1 2 3 4 5
x 3
add to favorites
×
Save as Personal and add changes to this tab that will be seen only by you. Learn more ›
×
You can save this tab as Personal to edit and correct it or add notes. All changes will be seen only by you. Learn more »
launch autoscroll
font size
0
reset
how to read this tab
guitar tuner
edit
Autoscroll
slow
fast
+/-
esc
set tempo
stop
TIL IT’S GONE

chords used
    E  E*  A     F#
E|----------------------|
B|----------------------|
G|--1--4---2-----3------|
D|--2--6---2-----4------|
A|--2--7---2-----4------|
E|----------------------|


Intro
E|----------------------------------------------------------|
B|----------------------------------------------------------|
G|----------------------------------------------------------|
D|--6-4-7-6-4-------6-4-7-6-2---6-4-7-6-4-----4-6-----------|
A|------------7---------------------------7---------7-------|
E|----------------------------------------------------------|

E  A,  E  A

E*                 F#                  A
Got nowhere to go, all night to get there            
                         E                               
But I'm going there with you                             
E*                                                        
Tonight we're running on luck                            
F#                    A                          
If we're gonna use it all up                           
                            E
There's only one thing left to do

E
Gonna take a deep breath and hold it in
A
Twirl you around 'til my head spins
E                                              A
Kiss that lipstick and wear it thin 'til it's gone, 'til it's gone

E
Break every rule we ever learned
A
Kick back and watch the big wheels turn
E                                            A
Light up the night and let it burn 'til it's gone
                             E
'Til it's gone, 'til it's gone

E|----------------------------------------------------------|
B|----------------------------------------------------------|
G|----------------------------------------------------------|
D|--6-4-7-6-4-------6-4-7-6-2---6-4-7-6-4-----4-6-----------|
A|------------7---------------------------7---------7-------|
E|----------------------------------------------------------|

E*
You look way too good
F#
This feels way too right
A                     E
It'd been way too long to start
E*
And it's sure worth drinking to
F#
So baby here's to you
A                     E
I don't wanna waste a drop

E
Gonna take a deep breath and hold it in
A
Twirl you around 'til my head spins
E                                              A
Kiss that lipstick and wear it thin 'til it's gone, 'til it's gone

E
Break every rule we ever learned
A
Kick back and watch the big wheels turn
E                                            A
Light up the night and let it burn 'til it's gone
                          E
'Til it's gone, 'til it's gone


E   A,  E  A,   


E*
One life, one chance
F#
One ticket to the big dance
A
You and me still holding on
E
Right down to the last song

E
Gonna take a deep breath and hold it in
A
Twirl you around 'til my head spins
E                                              A
Kiss that lipstick and wear it thin 'til it's gone, 'til it's gone

E
Break every rule we ever learned
A
Kick back and watch the big wheels turn
E                                            A
Light up the night and let it burn 'til it's gone
                              E
'Til it's gone, 'til it's gone

E  A,  E  A 

E|----------------------------------------------------------|
B|----------------------------------------------------------|
G|----------------------------------------------------------|
D|--6-4-7-6-4-------6-4-7-6-2---6-4-7-6-4-----4-6-----------|
A|------------7---------------------------7---------7-------|
E|----------------------------------------------------------|

E*   F#   A    E

E*                              
You're sure worth drinking to
F#                      
Baby, here's to you
A                     E
I don't wanna waste a drop

E   F#   A  E

E                         F# 
I'm gonna drink it all up
 A                                  E
'Til it's gone, 'til it's gone, it's gone

            
            
Suggest correction
Creating personal tab
Creating personal tab
You can edit any tab online and save it as your Personal.

You can edit, replace or remove any tab part or add personal notes – all changes will be seen only by you.

Personal tabs can be accessed anytime from any device, even offline.
Learn more »
Give kudos to tab author, rate the tab!
1 2 3 4 5
comments
print report bad tab
guest
You may want to rate the tab now too:
select rating
Wanna post a correction for this tab? Suggest correction