Oops, an error
Loading. Please wait.

Who Youd Be Today intro tab

version 1
version 1

Intro

Whole song

Interactive

5,271 views 1 this week
3 commentsread comments
1 2 3 4 5
x 4
add to favorites
×
Save as Personal and add changes to this tab that will be seen only by you. Learn more ›
×
You can save this tab as Personal to edit and correct it or add notes. All changes will be seen only by you. Learn more »
launch autoscroll
font size
0
reset
how to read this tab
guitar tuner
edit
Autoscroll
slow
fast
+/-
esc
set tempo
stop
Author
Difficulty
Here are a few parts from the song that were kinda easy to put togeater even for my bad 
and guitar playin skills

Heres the intro rythem

e--5--5--5-3-2------5--5--5-3-2-------------------------------|
b---------------3----------------3----------------------------|
g-------------------------------------------------------------|
d-------------------------------------------------------------|
a-------------------------------------------------------------|
e-------------------------------------------------------------|

Then heres the part in the song going in to the bridge... think its a bridge, not sure 
my musical terms

(match the note to the lyrics)
   sometime I wonder, who you'd be today
e-------------0--2----0---2-----0-----------------------------|
b--3---3----3----------------------3--3-----------------------|
g-------------------------------------------------------------|
d-------------------------------------------------------------|
a-------------------------------------------------------------|
e-------------------------------------------------------------|

Then that in turn leads back to that intro rythem for the first 2 verses or so.
Suggest correction
Creating personal tab
Creating personal tab
You can edit any tab online and save it as your Personal.

You can edit, replace or remove any tab part or add personal notes – all changes will be seen only by you.

Personal tabs can be accessed anytime from any device, even offline.
Learn more »
comments
print report bad tab
3 comments total.
0 reply
shelbycj 16 Dec 22, 2005 07:05 AM

it sounds okay

0 reply
WarrioRebel1034 15 May 28, 2006 11:14 AM

it is almost correct the only thing wrong is they are chords in the shape of the D chord with the exception of the e string (highest in pitch) so its,
+----5--5--5-3-2--+
+----3--3--3-3-3--+
+----2--2--2-2-2--+
+-----------------+
+-----------------+
+-----------------+
if that makes sense

0 reply
guitarpro6969 10 Oct 29, 2006 02:11 PM

ok man thats some good picking and warriorebel just about got it right but, it sounds perfect like this.
---5--5-5-3-2----+
---3--3-3------3-+
---2--2-2--------+
-----------------+
-----------------+
-----------------+

i know thats the perfect playing for it. but good picken.

guest
You may want to rate the tab now too:
select rating
Wanna post a correction for this tab? Suggest correction