Oops, an error
Loading. Please wait.

Conviction Of The Heart Tab

5,287 views 33 this week
no commentswrite comment
1 2 3 4 5
please rate
add to favorites
launch autoscroll
font size
0
reset
how to read this tab
guitar tuner
Tab Pro tools
  • play this tab
  • loop segment
  • change instrument
  • show fretboard
  • metronome
×
Best way to learn
"Conviction Of The Heart"
Autoscroll
slow
fast
+/-
esc
set tempo
stop
Contributor
Capo
3rd fret
Capo 3

-3--3----3----3----3------2--3----|
-3--3----3----3----3------3--3----|
-------------------0h2s5--2-------|  Intro
----0h2--0h2--0h2-----------------|
-2--3----3----3--------------2----|
-3---------------------------3----|

Verse 1

G             Cadd9               G
Where are the dreams that we once had?
            Cadd9              Em
This is the time to bring them back.
              Am           Em
What were the promises
              Am                       C     D
Caught on the tips of our tongues?



--------3----------3----|
--------3----------3----|
------------------------|
------------------------|
--------2---------------|
-------------------2----|
Do we forget or forgive?


          G           Cadd9        D
There's a whole other life         waiting to be lived when...


----------------3-----3----|
----------------3-----3----|
---------------------------|
---------------------------|
----------------2----------|
----------------------2----|     G    Cadd9
One day we're brave enough

                        D
To talk with Conviction of the Heart.


-Repeat Intro Riff


Verse 2 same as verse 1

And down your streets I've walked alone,
As if my feet were not my own
Such is the path I chose, doors I have opened and closed
I'm tired of living this life,
Fooling myself, believing we're right, when...
I've never given love
With any Conviction of the Heart


Chorus

G            Cadd9           G
One with the earth, with the sky
          C    G    Em      D    G
One with  ev   ry   thing   in   life
  Cadd9            G
I believe we'll survive
      C   G  D
If we on  ly try...

----------------------3-------3----|
----------------------3-------3----|
-----------------------------------|
-----------------------------------|
----------------------2------------|
------------------------------2----|
How long must we all wait to change

     G              Cadd9          D
This world bound in chains that we live in


----------------3-------3----|
----------------3-------3----|
-----------------------------|
-----------------------------|
----------------2------------|
------------------------2----|
To know what it is to forgive,

    G  Cadd9
And be forgiven?


Verse 3 same as verse 1

It's been too many years of taking now.
Isn't it time to stop somehow?
Air that's too angry to breathe, water our children can't drink
You've heard it hundreds of times
You say your aware, believe, and you care, but...
Do you care enough
Where's your conviction of the Heart?


Chorus

One with the earth,with the sky,one with everything in life.
I believe it will start with conviction of the heart.
With the earth,with the sky,one with everything in life.
I believe it will start with conviction of the heart.
One earth,one sky,only one world,only one chance for one life.
When will we live?
One child,one dream,only one life.
You've but one chance for one life.
When will we live?
Only one earth,and only one sky,and only one world.
We've only got one chance to live in one life.
I believe, it's only gonna start when we begin with some conviction of the heart.
comments
We did not receive enough feedback on this tab! Please rate:
print report bad tab
1 2 3 4 5
I want to post or [tab]
guest
You may want to rate the tab now too:
select rating
Please do not post tabs as comments. Select "correction" instead!