Oops, an error
Loading. Please wait.

Danger Zone bass

version 2
version 2

Whole song

  • Transcribed from Rocksmith, completely accurate.

Interactive

301 views 51 this week
4 commentsread comments
1 2 3 4 5
x 4
add to favorites
×
Save as Personal and add changes to this tab that will be seen only by you. Learn more ›
×
You can save this tab as Personal to edit and correct it or add notes. All changes will be seen only by you. Learn more »
launch autoscroll
font size
0
reset
guitar tuner
edit
Autoscroll
slow
fast
+/-
esc
set tempo
stop
Author
Difficulty
About this tab version
Transcribed from Rocksmith, completely accurate. Was this info helpful? Yes No
Transcribed from Rocksmith
https://www.youtube.com/watch?v=_gI7SZd0mm0

[Intro]

G|-----------------|-----------------|-----------------|-----------------|
D|-------4-6---4---|-----------------|-------4-6---4---|-----------------|
A|---4-6-----------|-6---------------|---4-6-----------|-6---------------|
E|-----------------|-----------------|-----------------|-----------------|

G|-----------------|-----------------|-----------------|-----------------|
D|-------4-6---4---|-----------------|-----------------|-----------------|
A|---4-6-----------|-4---------------|---4-----4---4---|-6---------------|
E|-----------------|-----------------|-4-----4---------|-----------------|

G|-----------------|-----------------|-----------------|
D|-------4-6---4---|-----------------|-------4-6---4---|
A|---4-6-----------|-6---------------|---4-6-----------|
E|-----------------|-----------------|-----------------|

[Verse]

G|-----------------|-----------------|-----------------|-----------------|
D|-----4-----------|-----4-----------|-----4-----------|-----4-----------|
A|-4-6---6-4-6-----|-4-6---6-4-6-----|-4-6---6-4-6-----|-4-6---6-4-6-----|
E|-------------4-6-|-------------4-6-|-------------4-6-|-------------4-6-|

G|-----------------|-----------------|-----------------|-----------------|
D|-----4-----------|-----4-----------|-----4-----------|-----4-----------|
A|-4-6---6-4-6-----|-4-6---6-4-6-----|-4-6---6-4-6-----|-4-6---6-4-6-----|
E|-------------4-6-|-------------4-6-|-------------4-6-|-------------4-6-|

[Chorus]

G|-----------------|-----------------|-----------------|-----------------|
D|-----------------|-----------------|-----------------|-------4-6---4---|
A|-4---------------|---4-----4---4---|-6---------------|---4-6-----------|
E|-----------------|-4-----4---------|-----------------|-----------------|

G|-----------------|-----------------|-----------------|-----------------|
D|-----------------|-----------------|-----------------|-----------------|
A|-4---------------|---4-----4---4---|-2---------------|---2-----2---2---|
E|-----------------|-4-----4---------|-----------------|-2-----2---------|

G|-----------------|-----------------|
D|-----------------|-------4-6---4---|
A|-2---------------|---4-6-----------|
E|-----------------|-----------------|

[Verse]

G|-----------------|-----------------|-----------------|-----------------|
D|-----4-----------|-----4-----------|-----4-----------|-----4-----------|
A|-4-6---6-4-6-----|-4-6---6-4-6-----|-4-6---6-4-6-----|-4-6---6-4-6-----|
E|-------------4-6-|-------------4-6-|-------------4-6-|-------------4-6-|

G|-----------------|-----------------|-----------------|-----------------|
D|-----4-----------|-----4-----------|-----4-----------|-----4-----------|
A|-4-6---6-4-6-----|-4-6---6-4-6-----|-4-6---6-4-6-----|-4-6---6-4-6-----|
E|-------------4-6-|-------------4-6-|-------------4-6-|-------------4-6-|

[Chorus]

G|-----------------|-----------------|-----------------|-----------------|
D|-----------------|-----------------|-----------------|-------4-6---4---|
A|-4---------------|---4-----4---4---|-6---------------|---4-6-----------|
E|-----------------|-4-----4---------|-----------------|-----------------|

G|-----------------|-----------------|-----------------|-----------------|
D|-----------------|-----------------|-----------------|-----------------|
A|-2---------------|-4---------------|-2---------------|---2-----2---2---|
E|-----------------|-----------------|-----------------|-2-----2---------|

G|-----------------|-----------------|
D|-----------------|-------4-6---4---|
A|-2---------------|---4-6-----------|
E|-----------------|-----------------|

[Bridge]

G|-----------------|-----------------|-----------------|-----------------|
D|-6---------------|---6-----6---6---|-4---------------|---4-----4---4---|
A|-----------------|-6-----6---------|-----------------|-4-----4---------|
E|-----------------|-----------------|-----------------|-----------------|

G|-4---------------|---4-----4---4---|-6---------------|---6-----6---6---|
D|-----------------|-4-----4---------|-----------------|-6-----6---------|
A|-----------------|-----------------|-----------------|-----------------|
E|-----------------|-----------------|-----------------|-----------------|

[Solo]

G|-----------------|-----------------|-----------------|-----------------|
D|-----4-----------|-----4-----------|-----4-----------|-----4-----------|
A|-4-6---6-4-6-----|-4-6---6-4-6-----|-4-6---6-4-6-----|-4-6---6-4-6-----|
E|-------------4-6-|-------------4-6-|-------------4-6-|-------------4-6-|

G|-----------------|-----------------|-----------------|-----------------|
D|-----4-----------|-----4-----------|-----4-----------|-----4-----------|
A|-4-6---6-4-6-----|-4-6---6-4-6-----|-4-6---6-4-6-----|-4-6---6-4-6-----|
E|-------------4-6-|-------------4-6-|-------------4-6-|-------------4-6-|

G|-----------------|-----------------|-----------------|-----------------|
D|-----------------|-------4-6---4---|-----------------|-------4-6---4---|
A|-6---------------|---4-6-----------|-6---------------|---4-6-----------|
E|-----------------|-----------------|-----------------|-----------------|

G|-----------------|-----------------|-----------------|-----------------|
D|-----------------|-----------------|-----------------|-------4-6---4---|
A|-4---------------|---4-----4---4---|-6---------------|---4-6-----------|
E|-----------------|-4-----4---------|-----------------|-----------------|

G|-----------------|-----------------|
D|-----------------|-------4-6---4---|
A|-6---------------|---4-6-----------|
E|-----------------|-----------------|

[Verse]

G|-----------------|-----------------|-----------------|-----------------|
D|-----4-----------|-----4-----------|-----4-----------|-----4-----------|
A|-4-6---6-4-6-----|-4-6---6-4-6-----|-4-6---6-4-6-----|-4-6---6-4-6-----|
E|-------------4-6-|-------------4-6-|-------------4-6-|-------------4-6-|

G|-----------------|-----------------|-----------------|-----------------|
D|-----4-----------|-----4-----------|-----4-----------|-----4-----------|
A|-4-6---6-4-6-----|-4-6---6-4-6-----|-4-6---6-4-6-----|-4-6---6-4-6-----|
E|-------------4-6-|-------------4-6-|-------------4-6-|-------------4-6-|

[Chorus]

G|-----------------|-----------------|-----------------|-----------------|
D|-----------------|-----------------|-----------------|-------4-6---4---|
A|-4---------------|---4-----4---4---|-6---------------|---4-6-----------|
E|-----------------|-4-----4---------|-----------------|-----------------|

G|-----------------|-----------------|-----------------|-----------------|
D|-----------------|-----------------|-----------------|-------4-6---4---|
A|-4---------------|---4-----4---4---|-6---------------|---4-6-----------|
E|-----------------|-4-----4---------|-----------------|-----------------|

G|-4---------------|--4---4----------|-----------------|-----------------|
D|-----------------|-4--4------------|-6---------------|---6---6---------|
A|-----------------|-----------------|-----------------|-6---6-----------|
E|-----------------|-----------------|-----------------|-----------------|

[Interlude]

G|-----------------|-----------------|-----------------|-----------------|
D|-----4-----------|-----4-----------|-----4-----------|-----4-----------|
A|-4-6---6-4-6-----|-4-6---6-4-6-----|-4-6---6-4-6-----|-4-6---6-4-6-----|
E|-------------4-6-|-------------4-6-|-------------4-6-|-------------4-6-|

G|-----------------|-----------------|-----------------|-----------------|
D|-----4-----------|-----4-----------|-----4-----------|-----4-----------|
A|-4-6---6-4-6-----|-4-6---6-4-6-----|-4-6---6-4-6-----|-4-6---6-4-6-----|
E|-------------4-6-|-------------4-6-|-------------4-6-|-------------4-6-|

[Chorus]

G|-----------------|-----------------|-----------------|-----------------|
D|-----------------|-----------------|-----------------|-------4-6---4---|
A|-4---------------|---4-----4---4---|-6---------------|---4-6-----------|
E|-----------------|-4-----4---------|-----------------|-----------------|

G|-----------------|-----------------|-----------------|-----------------|
D|-----------------|-----------------|-----------------|-------4-6---4---|
A|-4---------------|---4-----4---4---|-6---------------|---4-6-----------|
E|-----------------|-4-----4---------|-----------------|-----------------|

G|-4---------------|--4-----4---4----|-----------------|-----------------|
D|-----------------|-4----4----------|-6---------------|---6---6---------|
A|-----------------|-----------------|-----------------|-6---6-----------|
E|-----------------|-----------------|-----------------|-----------------|

G|-6---------------|---6-----6---6---|-----------------|-----------------|
D|-----------------|-6-----6---------|-----4-----------|-----4-----------|
A|-----------------|-----------------|-4-6---6-4-6-----|-4-6---6-4-6-----|
E|-----------------|-----------------|-------------4-6-|-------------4-6-|

G|-----------------|-----------------|-----------------|-----------------|
D|-----------------|-----------------|-----------------|-------4-6---4---|
A|-4---------------|---4-----4---4---|-6---------------|---4-6-----------|
E|-----------------|-4-----4---------|-----------------|-----------------|

G|-----------------|-----------------|-----------------|-----------------|
D|-----------------|-----------------|-----------------|-------4-6---4---|
A|-4---------------|---4-----4---4---|-6---------------|---4-6-----------|
E|-----------------|-4-----4---------|-----------------|-----------------|

G|-4---------------|--4-----4---4----|-----------------|-----------------|
D|-----------------|-4----4----------|-6---------------|---6-----6---6---|
A|-----------------|-----------------|-----------------|-6-----6---------|
E|-----------------|-----------------|-----------------|-----------------|

G|-6---------------|---6-----6---6---|-----------------|-----------------|
D|-----------------|-6-----6---------|-----4-----------|-----4-----------|
A|-----------------|-----------------|-4-6---6-4-6-----|-4-6---6-4-6-----|
E|-----------------|-----------------|-------------4-6-|-------------4-6-|

[End]

G|-----------------|
D|-----------------|
A|-4---------------|
E|-----------------|

************************************
Suggest correction
Creating personal tab
Creating personal tab
You can edit any tab online and save it as your Personal.

You can edit, replace or remove any tab part or add personal notes – all changes will be seen only by you.

Personal tabs can be accessed anytime from any device, even offline.
Learn more »
comments
print report bad tab
4 comments total. Showing first comments.
0 reply
EricDaCableGuy 10 May 04, 2017 10:59 PM

From what I can tell at least it's in the right key. It sounds pretty good. Just got fiddle around on the verse. It's technically in eb but this makes it easier for me haha no need to tune I'll give ya 4 stars!

0 reply
EricDaCableGuy 10 May 04, 2017 11:00 PM

Also it could really be cut down into 1 verse,1 chorus, and like the interlude. Just for readability

guest
You may want to rate the tab now too:
select rating
Wanna post a correction for this tab? Suggest correction