Oops, an error
Loading. Please wait.

Dannys Song Tab

version 2
version 2

Whole song

Interactive

6,669 views 48 this week
no commentswrite comment
1 2 3 4 5
x 19
add to favorites
launch autoscroll
font size
0
reset
how to read this tab
guitar tuner
×
Best way to learn
"Dannys Song"
Autoscroll
slow
fast
+/-
esc
set tempo
stop
Author
Difficulty
novice
 Danny’s Song - Kenny Loggins 
 Tuning - Standard

[Intro]
   D)
E|-------2-------2-------2-------2-|
B|---3-------3-------3-------3-----|
G|-----2-------2-------2-------2---|
D|-0-------0-------0-------0-------|
A|---------------------------------|
E|---------------------------------|

[Verse]
   D)              C)                Bm)
E|-------2---------------0---------|---------------2-----------------|
B|---3-------3---------------------|-------3----------------3--------|
G|-----2-------2-----0-------0-----|---4-------4--------4--------4---|
D|-0-------0-----------2-------2---|-----4-------4--------4--------4-|
A|-----------------3-------3-------|-2-------2--------2--------2-----|
E|---------------------------------|---------------------------------|

   E)                                A)
E|---------------------------------|-----------------------0---------|
B|-------0-------0-------0---------|-------2-------3---------------2-|
G|---1-------1-------1-------1-----|---2-------2-------2-------2-----|
D|-----2-------2-------2--------2--|-----2-------2-------2-------2---|
A|---------------------------------|-0-------0-------0-------0-------|
E|-0-------0-------0-------0-------|---------------------------------|

   D)              C)                Bm)
E|-----2-----------------0---------|---------------2-----------------|
B|-----3-----3---------------------|-------3----------------3--------|
G|-----2-------2-----0-------0-----|---4-------4--------4--------4---|
D|-0-------0-----------2-------2---|-----4-------4--------4--------4-|
A|-----------------3-------3-------|-2-------2--------2--------2-----|
E|---------------------------------|---------------------------------|

   E)                                A)
E|---------------------------------|-----------------------0---------|
B|-------0-------0-------0---------|-------2-------3---------------2-|
G|---1-------1-------1-------1-----|---2-------2-------2-------2-----|
D|-----2-------2-------2--------2--|-----2-------2-------2-------2---|
A|---------------------------------|-0-------0-------0-------0-------|
E|-0-------0-------0-------0-------|---------------------------------|

[Chorus]
   G)               A)                D)              Bm)
E|------------------------------0--|-----2--------------------------|
B|-----3--------------2------------|-----3------3---------3---------|
G|-----0----0---------2----2-------|-----2--------------4-----------|
D|-----0------0-------2-------2----|-0----------0---------------0---|
A|-----------------0-----0---------|--------4--------2--------------|
E|-3------3------------------------|--------------------------2-----|

   G)               A)                D)              Bm)
E|------------------------0--------|--------------------------------|
B|-------3-------------------------|-----2------3----------3--------|
G|---0-------0--------2--------2---|-----3-------------4--------4---|
D|-----0-------0--------2--------2-|-0----------0--------4--------4-|
A|------------------0--------0-----|--------4-------2--------2------|
E|-3-------3-----------------------|--------------------------------|

   G)               A)                D)              Bm)
E|---------------------------------|--------------------------------|
B|---------------------------------|------------------------7-------|
G|-------4---------------6---------|----11--------------------------|
D|---5-------5-------7-------7-----|----12----12--------9-------9---|
A|-----5-------5-------7-------7---|----------------------9-------9-|
E|-3-------3-------5-------5-------|-10----10----9----7-------7-----|

   Bm)              E)                A)
E|---------------------------------|--------------------------------|
B|-------3---------------0---------|------2-------------------------|
G|---4-------4-------1-------1-----|------2-------------------------|
D|-----4-------4-------2-------2---|------2-------------------------|
A|-2-------2-----------------------|--0----------------0---2---4----|
E|-----------------0-------0-------|--------------------------------|

After the first chorus, a second guitar joins and strums the chords
while the first guitar continues picking. 
Suggest correction
comments
print report bad tab
guest
You may want to rate the tab now too:
select rating
Wanna post a correction for this tab? Suggest correction