Oops, an error
Loading. Please wait.

Going Home For The Last Time bass

4 views 1 this week
no commentswrite comment
1 2 3 4 5
3 more votes to show rating
add to favorites
×
Save as Personal and add changes to this tab that will be seen only by you. Learn more ›
×
You can save this tab as Personal to edit and correct it or add notes. All changes will be seen only by you. Learn more »
launch autoscroll
font size
0
reset
guitar tuner
edit
Autoscroll
slow
fast
+/-
esc
set tempo
stop
G|----------------------------------------------------------------|
D|----------------------------------------------------------------| x2
A|5-------------------------------5---------------2-------5---2---|
E|----------------5---------------------------5-------------------|

0:08

G|----------------------------------------------------------------|
D|----------------------------------------------------------------|
A|5---------------5---------------5---------------5---------------|
E|----------------------------------------------------------------|

G|----------------------------------------------------------------|
D|----------------------------------------------------------------|
A|5---------------5---------------5---------------2-------5---2---|
E|--------------------------------------------5-------------------|

G|----------------------------------------------------------------|
D|----------------------------------------------------------------|
A|5---------------5---------------5---------------5---------------|
E|----------------------------------------------------------------|

G|----------------------------------------------------------------|
D|------------------------------------------------2-------4-------|
A|5---------------5---------------5-------------------------------|
E|----------------------------------------------------------------|

0:24

G|----------------------------------------------------------------|
D|5-------------------------------5---------------5---------------|
A|----------------5-----------------------------------------------|
E|----------------------------------------------------------------|

G|----------------------------------------------------------------|
D|----------------------------------------------------------------|
A|5-------------------------------5---------------2-------5---2---|
E|----------------5---------------------------5-------------------|

G|----------------------------------------------------------------|
D|--------------------------------5---------------5---------------|
A|5---------------5-----------------------------------------------|
E|----------------------------------------------------------------|

G|----------------------------------------------------------------|
D|----------------------------------------------------------------|
A|5-------------------------------5---------------2-------5---2---|
E|----------------5---------------------------5-------------------|

0:39

G|----------------------------------------------------------------|
D|----------------------------------------------------------------|
A|5---------------5---------------5---------------5---------------|
E|----------------------------------------------------------------|

G|----------------------------------------------------------------|
D|----------------------------------------------------------------|
A|5---------------5---------------5---------------2-------5---2---|
E|--------------------------------------------5-------------------|

G|----------------------------------------------------------------|
D|----------------------------------------------------------------|
A|5---------------5---------------5---------------5---------------|
E|----------------------------------------------------------------|

G|----------------------------------------------------------------|
D|------------------------------------------------2-------4-------|
A|5---------------5---------------5-------5-----------------------|
E|----------------------------------------------------------------|

0:55

G|----------------------------------------------------------------|
D|5-------------------------------5---------------5---------------|
A|----------------5-----------------------------------------------|
E|----------------------------------------------------------------|

G|----------------------------------------------------------------|
D|----------------------------------------------------------------|
A|5-------------------------------5---------------2-------5---2---|
E|----------------5---------------------------5-------------------|

G|----------------------------------------------------------------|
D|--------------------------------5---------------5---------------|
A|5---------------5-----------------------------------------------|
E|----------------------------------------------------------------|

G|----------------------------------------------------------------|
D|----------------------------------------------------------------|
A|5-------------------------------5-------5-------4-------2-------|
E|----------------5-----------------------------------------------|

1:11

G|----------------------------------------------------------------|
D|--------------------------------------------------------4-------|
A|----------------7-------------------------------7---------------|
E|5-------------------------------5-------------------------------|

G|----------------------------------------------------------------|
D|5---------------5-----------------------------------------------|
A|--------------------------------5-------------------------------|
E|------------------------------------------------5---------------|

G|----------------------------------------------------------------|
D|----------------------------------------------------------------|
A|5-------------------------------5---------------5---------------|
E|----------------5-----------------------------------------------|

G|----------------------------------------------------------------|
D|--------------------------------------------------------4-------|
A|----------------7-------------------------------7---------------|
E|5-------------------------------5-------------------------------|

1:26

G|----------------------------------------------------------------|
D|5-------------------------------5---------------5---------------|
A|----------------5-----------------------------------------------|
E|----------------------------------------------------------------|

G|----------------------------------------------------------------|
D|----------------------------------------------------------------|
A|5-------------------------------5---------------2-------5---2---|
E|----------------5---------------------------5-------------------|

G|----------------------------------------------------------------|
D|----------------------------------------------------------------|
A|5---------------5-----------------------------------------------|
E|--------------------------------5---------------5---------------|

G|----------------------------------------------------------------|
D|----------------------------------------------------------------|
A|5-------------------------------5-------------------------------|
E|----------------5-------------------------------5---------------|

G|----------------------------------------------------------------|
D|----------------------------------------------------------------|
A|5---------------5-----------------------------------------------|
E|--------------------------------5---------------5---------------|

G|----------------------------------------------------------------|
D|----------------------------------------------------------------|
A|5---------------5-------------------------------3-------5-------|
E|--------------------------------6-------------------------------|

1:49

G|----------------------------------------------------------------|
D|----------------------------------------------------------------|
A|6---------------6---------------6---------------6---------------|
E|----------------------------------------------------------------|

G|----------------------------------------------------------------|
D|----------------------------------------------------------------|
A|6---------------6---------------6---------------3-------6---3---|
E|--------------------------------------------6-------------------|

G|----------------------------------------------------------------|
D|----------------------------------------------------------------|
A|6---------------6---------------6---------------6---------------|
E|----------------------------------------------------------------|

G|----------------------------------------------------------------|
D|------------------------------------------------3-------5-------|
A|6---------------6---------------6-----------6-------------------|
E|----------------------------------------------------------------|

2:04

G|----------------------------------------------------------------|
D|6-------------------------------6---------------6---------------|
A|----------------6-----------------------------------------------|
E|----------------------------------------------------------------|

G|----------------------------------------------------------------|
D|----------------------------------------------------------------|
A|6-------------------------------6---------------3-------6---3---|
E|----------------6---------------------------6-------------------|

G|----------------------------------------------------------------|
D|--------------------------------6---------------6---------------|
A|6---------------6-----------------------------------------------|
E|----------------------------------------------------------------|

G|----------------------------------------------------------------|
D|----------------------------------------------------------------|
A|6-------------------------------6-------6-------5-------3-------|
E|----------------6-----------------------------------------------|

2:19

G|----------------------------------------------------------------|
D|--------------------------------------------------------5-------|
A|----------------8-------------------------------8---------------|
E|6-------------------------------6-------------------------------|

G|----------------------------------------------------------------|
D|6---------------6-----------------------------------------------|
A|--------------------------------6-------------------------------|
E|------------------------------------------------6---------------|

G|----------------------------------------------------------------|
D|----------------------------------------------------------------|
A|6-------------------------------6---------------5-------3-------|
E|----------------6-----------------------------------------------|

G|----------------------------------------------------------------|
D|--------------------------------------------------------5-------|
A|----------------8-------------------------------8---------------|
E|6-------------------------------6-------------------------------|

2:34

G|----------------------------------------------------------------|
D|6-------------------------------6---------------6---------------|
A|----------------6-----------------------------------------------|
E|----------------------------------------------------------------|

G|----------------------------------------------------------------|
D|----------------------------------------------------------------|
A|6-------------------------------6---------------3-------6---3---|
E|----------------6---------------------------6-------------------|

G|----------------------------------------------------------------|
D|----------------------------------------------------------------|
A|6---------------6-----------------------------------------------|
E|--------------------------------6---------------6---------------|

G|----------------------------------------------------------------|
D|----------------------------------------------------------------|
A|6-------------------------------6---------------3-------6---3---|
E|----------------6---------------------------6-------------------|

G|----------------------------------------------------------------|
D|----------------------------------------------------------------|
A|6---------------6-----------------------------------------------|
E|--------------------------------6---------------6---------------|

G|----------------------------------------------------|
D|----------------------------------------------------|
A|6---------------3-------6---3---6---------------6---|
E|------------6---------------------------6-----------|
Suggest correction
Creating personal tab
Creating personal tab
You can edit any tab online and save it as your Personal.

You can edit, replace or remove any tab part or add personal notes – all changes will be seen only by you.

Personal tabs can be accessed anytime from any device, even offline.
Learn more »
Give kudos to tab author, rate the tab!
1 2 3 4 5
comments
print report bad tab
guest
You may want to rate the tab now too:
select rating
Wanna post a correction for this tab? Suggest correction