Oops, an error
Loading. Please wait.

Blue On Black Tab

version 2
version 2

Whole song

Interactive

105,303 views 132 this week
12 commentsread comments
1 2 3 4 5
x 21
add to favorites
launch autoscroll
font size
0
reset
how to read this tab
guitar tuner
×
Best way to learn
"Blue On Black"
Autoscroll
slow
fast
+/-
esc
set tempo
stop
Standard tuning
EADGBe

[Verse]
e|--------------------3-3-33-33-------------------3-3-33-33----|
B|-----3-33-3---------3-3-33-33----3-33-3---------3-3-33-33----|
G|-----2-22-2---------0-0-00-00----2-22-2---------0-0-00-00----|
D|--0--0-00-0---------x-x-xx-xx--0-0-00-0---------x-x-xx-xx----| (x2)
A|-------------0-2-3--3-2-22-22------------0-2-3--3-3-33-33----|
E|-------------------------------------------------------------|

[Chorus]
e|--------------------3-3-33-33-------------------3-3-33-33----|
B|-----3-33-3---------3-3-33-33----3-33-3---------3-3-33-33----|
G|-----2-22-2---------0-0-00-00----2-22-2---------0-0-00-00----|
D|--0--0-00-0---------x-x-xx-xx--0-0-00-0---------x-x-xx-xx----| (x2)
A|-------------0-2-3--3-2-22-22------------0-2-3--3-3-33-33----|
E|-------------------------------------------------------------|

[Solo]
e|--------------------------------------------------------------------------|
B|---------------------------------------15~-13-----------------------------|
G|--7-7-7-9b---12b-10-12p10------------------------12-10-12p10--------------|
D|--------------------------12-12-10---------------------------12-10h12-12--|
A|--------------------------------------------------------------------------|
E|--------------------------------------------------------------------------|


************************************

| x  Dead note
| ~  Vibrato
| p  Pull-off
| b  Bend
| h  Hammer-on

************************************
Suggest correction
comments
print report bad tab
12 comments total. Showing first comments.
0 reply
Funkmaster Fret 20 Jun 26, 2006 05:30 PM

This just sounds... off for the strumming pattern to me. i could be wrong, coming up on a year of playing, and I don't have any alternate suggestions, but could someone help out with the strum pattern vs. whats here? It just sounds... off. Srry. (no vote)

0 reply
ordinary_hero 10 Jul 01, 2006 01:41 PM

The strum pattern is off but I think that the first part of the verse is actually single note picking instead of chords. But maybe i'm wrong

0 reply
ChptOfDarkness 344 Oct 23, 2006 01:12 PM

it is chords. i have a book with this in it. i put that tab up soon.

guest
You may want to rate the tab now too:
select rating
Wanna post a correction for this tab? Suggest correction