Oops, an error
Loading. Please wait.

Show Me The Way Back Home tab

28 views 3 this week
no commentswrite comment
1 2 3 4 5
2 more votes to show rating
add to favorites
×
Save as Personal and add changes to this tab that will be seen only by you. Learn more ›
×
You can save this tab as Personal to edit and correct it or add notes. All changes will be seen only by you. Learn more »
launch autoscroll
font size
0
reset
how to read this tab
guitar tuner
edit
Autoscroll
slow
fast
+/-
esc
set tempo
stop
Author
Difficulty
About this tab version
This is in the key of A like its written, and the solos and fills are tabbed. Was this info helpful? Yes No
Show The Way Back Home - Kenny Wayne Shepherd Band
Key Of A, Standard Tuning

[Intro, light distortion & wide delay on expression pedal - play x2 and throughout verses]
e|---------------------------|
B|-----------2-----3-3---2---|
G|-----------2-----2-2---2---|
D|-----------2-----4-4---2---|
A|-------0---0-----0-0---0---|
E|-0h1h2--2------------------|

A                      D      A            A             D   A
I met a rag doll, with button eyes, Lookin so lost, and cast aside
       E                                             D         E
Beggin spare change, beneath the shadows of a sunset street light
A                D       A                A              D       A
I dug down deep, into my pocket, A couple dollars, was all that I had.
            E                                        D                            E
She reached out like, it was treasure, She looked so far away, when she said, she said,

[Chorus]
A           C#m      D                             A          C#m     D
Show me the way back home, Cuz I've been out there runnin, For way too long
                  A        A     B   C    C#m
And all that I've learned, just when you think,
                         F#m       E                B
you've chased down every last mile, There's always another one,
       D          E                             A
I need someone          To show me the way back home.

[Lead Fill Between Verses]
e|---------------------------------------------|
B|---------------------------------------------|
G|-----------14--------------------------------|
D|------14b16---14b16-14-----------------------|
A|------------------------15>14--12-(12)----|
E|---------------------------------------------|

          A         D          A              A             D        A
So many lost souls, along the line, It wasn't so long, that soul was mine.
            E                                    D             E
Feeling forsaken, down on my knees, Needing some mercy, asking please

[Chorus]
A           C#m      D                             A           C#m     D
Show me the way back home, Cuz I've been out there runnin, For way too long
                  A        A     B   C   C#m
And all that I've learned, just when you think,
                         F#m       E                 B
you've chased down every last mile, There's always another one,
            D              E                    A
I need someone          To show me the way back home.
         E              A
Oh yeah… Ooh ooh ooh ooh

[Instrumental]
(play chords for chorus twice through)

[Solo]
(On Chorus chords, heavy distortion, little reverb)

e|-------------------------------------------------------------------------------------------|
B|-----------10-12b13b12-10-12-12b13-10------------------------------------------------------|
G|---<9-11p9----------------------------9<11--9<11-9--------------------------------|
D|---------------------------------------------------12-12<14---14------------------------|
A|------------------------------------------------------------------10<12-14b16b14-12-----|
E|-------------------------------------------------------------------------------------------|

e|-----------------------------------------------------------------12b14-14b12-10------------|
B|--------------------------------------------10-12b14-14b12p10-12---------------------------|
G|----------------------------------------<11---------------------------------------------|
D|-------------------------------------------------------------------------------------------|
A|--14-14b16-12------------------------------------------------------------------------------|
E|--------------12<14—12<14—12—10—10<12>5----------------------------------------|

e|---------------------------10-12-------------12--------------------------------------------|
B|--12b14-14b12—10-10--12b14-------12b14—10-------10----10-12b14b12p10----10-----------------|
G|----------------11------------------------11-------11----------------11--------------------|
D|-------------------------------------------------------------------------------------------|
A|-------------------------------------------------------------------------------------------|
E|-------------------------------------------------------------------------------------------|

e|------------17-------19b21-19b21-19-17----20b22-20-----------------------------------------|
B|------17-19----19-17-------------------19--------------------------------------------------|
G|--<18-----------------------------------------------------------------------------------|
D|-------------------------------------------------------------------------------------------|
A|-------------------------------------------------------------------------------------------|
E|-------------------------------------------------------------------------------------------|
                                                          ad lib this part, thats what i do.

                  A        A    B    C   C#m
And all that I've learned, just when you think,
                         F#m        E                B
you've chased down every last mile, There's always another one,
            D   E            D
I need someone,  Yeah I need someone
      E                      A
 To show me the way back home.

e|---------------------------|
B|-----------2-----3-3---2---|
G|-----------2-----2-2---2---|
D|-----------2-----4-4---2---|
A|-------0---0-----0-0---0---|
E|-0h1h2--2------------------|(x2)

        A            D        A               A             D        A
So many lost souls, along the line, It wasn't so long, that soul was mine.
e|---------------------------|
B|-----------2-----3-3---2---|
G|-----------2-----2-2---2---|
D|-----------2-----4-4---2---|
A|-------0---0-----0-0---0---|
E|-0h1h2--2------------------|(x2)

************************************

| h    Hammer-on
| b    Bend
| (n)  Ghost note
| p    Pull-off

************************************
Suggest correction
Creating personal tab
Creating personal tab
You can edit any tab online and save it as your Personal.

You can edit, replace or remove any tab part or add personal notes – all changes will be seen only by you.

Personal tabs can be accessed anytime from any device, even offline.
Learn more »
Give kudos to tab author, rate the tab!
1 2 3 4 5
comments
print report bad tab
guest
You may want to rate the tab now too:
select rating
Wanna post a correction for this tab? Suggest correction