Oops, an error
Loading. Please wait.

Ohayou tab

version 2
version 2

Whole song

Interactive

by Keno
415 views 6 this week
no commentswrite comment
1 2 3 4 5
3 more votes to show rating
add to favorites
×
Save as Personal and add changes to this tab that will be seen only by you. Learn more ›
×
You can save this tab as Personal to edit and correct it or add notes. All changes will be seen only by you. Learn more »
launch autoscroll
font size
0
reset
how to read this tab
guitar tuner
edit
Autoscroll
slow
fast
+/-
esc
set tempo
stop
-------------------------------------------------------------------------------
                             OHAYOU - Keno
-------------------------------------------------------------------------------
Tabbed by: Kent Chester
E-mail: kent.chester@gmail.com

Tuning: Standard Capo 1

e|-------0-------0---|-------0-----------|
B|---0-------0-------|---0---------0-----|
G|-2---2---2---2---2-|-2---2---2-2---2-1-|
D|-------------------|-------------------|   3x

Verse 1 :
e|-----------------------|------------------|
B|-----0-0---------------|---0-0------------|
G|---2-----2-2-1-2-------|-2-----2-2-1-1-2--|
D|-2---------------2-2---|------------------|
 Tanomi mo shinai no ni asa wa yatte kuru-

e|---------------0--------------------------|
B|---0---2-2-2-2---------------------0------|
G|-2---2-----------2-2--2-2-2--2-2-2---1----|
D|---------------------------------------2--|
  -mado o...  Akete chotto fukaku shinkokyuu

e|------------------------------------------|
B|-----0-0---------------0-0----------------|
G|---2-----2-2-1-2-----2-----2-2-1-1-2------|
D|-2---------------2-2----------------------|
Fukurettsura no kimi omoi dashite warau

e|---------------0-----------------------------|
B|---0---2-2-2-2-------------------2-3-2-0---0-|
G|-2---2-----------2-2--2-2-2--2-2---------2---|
D|---------------------------------------------|
Kenka shita yokujitsu wa rusuden ni shippanashi daro


Pre Chorus 1 :
e|-- 0-0-0------------------------------------|
B|---------3-2-0---0---3-2-----0--------------|
G|-2-------------2---------2-----2------------|
D|-------------------2-------2----------------|
Waraiau koto nanigenai kaiwa

e|-----0-0-0-0-0-----2-0-0------------------|
B|---------------2-2-------2-3-2-----0------|
G|-2-2---------------------------2-----2----|
D|---------------------------------2--------|
Mainichi no kurashi no naka de dou datte ii koto

e|-------------4-5-0---0-------0------------|
B|---0-2-2-0-2-------2---3-3-2---3----------|
G|-2----------------------------------------|
D|------------------------------------------|
Nani mo kangaezuni ukande kuru kotoba-

e|--------------------5-4-0-2-2-0-----------|
B|-0-2-3-2-3-0-0--0-0-----------------------|
G|------------------------------------------|
D|------------------------------------------|
-"FU" to shita...  Shunkan ga taisetsu datte


Chorus 1 :
e|--------0-0-0--5-4-0------0-0-0-5-4-0--|
B|---0------------------2-3--------------|
G|-2---22--------------------------------|
D|---------------------------------------|
 Kimi ni "ohayou" tte itte messeeji o nokoshite

e|---------------------------------------|
B|-2-3-5-3-3-5-5--2-5-3-2-0---2-3-0------|
G|--------------------------2------------|
D|---------------------------------------|
 Boku no ichinichi hajime ni dekakenakya-

e|-----0-0-0--5-4-0------------5-4-0--|
B|-------------------2-3-5-5-5--------|
G|-2-2--------------------------------|
D|------------------------------------|
 -marude nani... Mo nakatta mitai ni

e|------------------------------------------|
B|-2-3-5-3-3-5-5--2-5-3-2-0---2-3-0---0-0---|
G|--------------------------2-------2-----2-|
D|------------------------------------------|
 Denwa shite kuru kimi no koe ga suki nanda


Interlude 1 :
e|-------0-------0---|-------0-----------|
B|---0-------0-------|---0---------0-----|
G|-2---2---2---2---2-|-2---2---2-2---2-1-|
D|-------------------|-------------------|

Verse 2 :
e|-----------------------|------------------|
B|-----0-0---------------|---0-0------------|
G|---2-----2-2-1-2-------|-2-----2-2-1-1-2--|
D|-2---------------2-2---|------------------|
Bukiyou ni natte ita nani ga jama shite

e|---------------0--------------------------|
B|---0---2-2-2-2---------------------0------|
G|-2---2-----------2-2--2-2-2--2-2-2---1----|
D|---------------------------------------2--|
Atarimae na koto ga futoumei ni natte

e|------------------------------------------|
B|-----0-0---------------0-0----------------|
G|---2-----2-2-1-2-----2-----2-2-1-1-2------|
D|-2---------------2-2----------------------|
Boku yori mo boku no koto o umaku aiseru no wa

e|---------------0-----------------------------|
B|---0---2-2-2-2-------------------2-3-2-0---0-|
G|-2---2-----------2-2--2-2-2--2-2---------2---|
D|---------------------------------------------|
Kimi shika inain datte wakatte kuyashikattan dake do


Pre Chorus 2 :
e|-- 0-0-0------------------------------------|
B|---------3-2-0---0---3-2-----0--------------|
G|-2-------------2---------2-----2------------|
D|-------------------2-------2----------------|
Sennyuukan tte jibun ni mo aru ne-

e|-----0-0-0-0-0-----2-0-0------------------|
B|---------------2-2-------2-3-2-----0------|
G|-2-2---------------------------2-----2----|
D|---------------------------------2--------|
-douse dame sa nante... Jibaku mo sezuni

e|-------------4-5-0---0-------0------------|
B|---0-2-2-0-2-------2---3-3-2---3----------|
G|-2----------------------------------------|
D|------------------------------------------|
Furidashi ni tatte tohou ni kurete mo-

e|--------------------5-4-0-2-2-0-----------|
B|-0-2-3-2-3-0-0--0-0-----------------------|
G|------------------------------------------|
D|------------------------------------------|
-hajime no ippo... Sukuwarete miru


 Chorus 2 :
e|--------0-0-0--5-4-0------0-0-0-5-4-0--|
B|---0------------------2-3--------------|
G|-2---22--------------------------------|
D|---------------------------------------|
 Kimi to kata o kunde kimi to te o tsunaide

e|---------------------------------------|
B|-2-3-5-3-3-5-5--2-5-3-2-0---2-3-0------|
G|--------------------------2------------|
D|---------------------------------------|
 Koibito dattari tomodachi de itai kara

e|-----0-0-0--5-4-0------------5-4-0--|
B|-------------------2-3-5-5-5--------|
G|-2-2--------------------------------|
D|------------------------------------|
 "ohayou" tte itte mata yume o misete

e|------------------------------------------|
B|-2-3-5-3-3-5-5--2-5-3-2-0---2-3-0---0-0---|
G|--------------------------2-------2-----2-|
D|------------------------------------------|
 Shizen na sono ikikata de ii kara sa


Interlude 2 :
Electrico Guitarre - ???


Pre-Chorus 3 :
e|-- 0-0-0------------------------------------|
B|---------3-2-0---0---3-2-----0--------------|
G|-2-------------2---------2-----2------------|
D|-------------------2-------2----------------|
Minarete ita kimi no hen na ji mo-

e|-----0-0-0-0-0-----2-0-0------------------|
B|---------------2-2-------2-3-2-----0------|
G|-2-2---------------------------2-----2----|
D|---------------------------------2--------|
-daiji na kotoba... Kaku to shinsen ni mieru

e|-------------4-5-0---0-------0------------|
B|---0-2-2-0-2-------2---3-3-2---3----------|
G|-2----------------------------------------|
D|------------------------------------------|
Sunao ni narenai sunao sa nanka ja-

e|--------------------5-4-0-2-2-0-0...------|
B|-0-2-3-2-3-0-0--0-0-----------------------|
G|------------------------------------------|
D|------------------------------------------|
-kimi ni nanni mo... Tsutawaranai


 Chorus 3 :
e|--------0-0-0--5-4-0------0-0-0-5-4-0--|
B|---0------------------2-3--------------|
G|-2---22--------------------------------|
D|---------------------------------------|
 Mata "ohayou" tte itte mata yume o misete

e|---------------------------------------|
B|-2-3-5-3-3-5-5--2-5-3-2-0---2-3-0------|
G|--------------------------2------------|
D|---------------------------------------|
 Kyou mo genki de sugosetara ii yo ne

e|-----0-0-0--5-4-0------------5-4-0--|
B|-------------------2-3-5-5-5--------|
G|-2-2--------------------------------|
D|------------------------------------|
 Konna ni tanjun de atarimae na koto ga

e|------------------------2-5-4-5-7-5-5-----|
B|-2-3-5-3-3-5-5--2-5-3-5-------------------|
G|------------------------------------------|
D|------------------------------------------| 
 -hontou wa... Ichiban miushinaigachi dakara ne


Bridge :
e|-2-5-4-2-0---0---0-2------------------2--2-4-2-5-2-0---0--|
B|-----------3---2-----0-2--2-2-3-2-2-0----------------3----|
G|----------------------------------------------------------|
D|----------------------------------------------------------|
Me o aketa mama miru yume shiranai ashita e hakobu... Merry-go-round goes


Chorus 2 (varian) :
e|--------0-0-0--5-4-0------0-0-0-5-4-0--|
B|---0------------------2-3--------------|
G|-2---22--------------------------------|
D|---------------------------------------|
 Kimi to kata o kunde kimi to te o tsunaide

e|---------------------------------------|
B|-2-3-5-3-3-5-5--2-5-3-2-0---2-3-0------|
G|--------------------------2------------|
D|---------------------------------------|
 Koibito dattari tomodachi de itai kara

e|-----0-0-0--5-4-0------------5-4-0--|
B|-------------------2-3-5-5-5--------|
G|-2-2--------------------------------|
D|------------------------------------|
 "ohayou" tte itte mata yume o misete

e|------------------------------------------|
B|-2-3-5-3-3-5-5--2-5-3-2-0---2-3-0---0-0---|
G|--------------------------2-------2-----2-|
D|------------------------------------------|
 Shizen na sono ikikata de ii kara sa


Outro :
e|-------0-------0---|-------0-----------|
B|---0-------0-------|---0---------0-----|
G|-2---2---2---2---2-|-2---2---2-2---2-1-|
D|-------------------|-------------------| 3x Fade Away

e|-------0-------0---|-------0-----------|-----------|
B|---0-------0-------|---0---------0-----|-----0-0---|
G|-2---2---2---2---2-|-2---2---2-2---2-1-|-1-2-----2-|
D|-------------------|-------------------|-----------|


************************************

| /   slide up
| \   slide down
| h   hammer-on
| p   pull-off
| ~   vibrato
| +   harmonic
| x   Mute note
| b   Bend
| pb  Pre-bend
| br  Bend release
| pbr Pre-bend release
| brb Bend release bend

************************************
Suggest correction
Creating personal tab
Creating personal tab
You can edit any tab online and save it as your Personal.

You can edit, replace or remove any tab part or add personal notes – all changes will be seen only by you.

Personal tabs can be accessed anytime from any device, even offline.
Learn more »
Give kudos to tab author, rate the tab!
1 2 3 4 5
comments
print report bad tab
guest
You may want to rate the tab now too:
select rating
Wanna post a correction for this tab? Suggest correction