Oops, an error
Loading. Please wait.

Home Again bass

441 views 1 this week
1 commentread comment
1 2 3 4 5
2 more votes to show rating
add to favorites
×
Save as Personal and add changes to this tab that will be seen only by you. Learn more ›
×
You can save this tab as Personal to edit and correct it or add notes. All changes will be seen only by you. Learn more »
launch autoscroll
font size
0
reset
guitar tuner
edit
Autoscroll
slow
fast
+/-
esc
set tempo
stop
Author
Difficulty
---------------------------------------------------------------------------------------------------
                                     HOME AGAIN - KENSINGTON
---------------------------------------------------------------------------------------------------
My interpretation of Home Again by Kensington.

Tabbed by: ~Technology.

Tuning: Standard EADG


Intro: (You can play it if you like, otherwise start at verse 1)
  1 e 2 e 3 e 4 e 1 e 2 e 3 e 4 e 1 e 2 e 3 e 4 e 1 e 2 e 3 e 4 e   
G|7-----------------------------------------------12------11------|
D|--------------------------------9-------------------------------|
A|---------------------------------------------------------------0|
E|----------------------------------------------------------------|

Verse 1:
  1 e 2 e 3 e 4 e 1 e 2 e 3 e 4 e 1 e 2 e 3 e 4 e 1 e 2 e 3 e 4 e    
G|----------------------------------------------------------------|
D|----------------------------------------------------------------|
A|2-2-------------------------------------------------------------|
E|------------------------------2-3-3---------------------------3-|

  1 e 2 e 3 e 4 e 1 e 2 e 3 e 4 e 1 e 2 e 3 e 4 e 1 e 2 e 3 e 4 e     
G|----------------------------------------------------------------|
D|--------------------------0-2-0-4---------------7---------------|
A|5-5-----------------------------------------------------0-------|
E|----------------------------------------------------------------|

  1 e 2 e 3 e 4 e 1 e 2 e 3 e 4 e 1 e 2 e 3 e 4 e 1 e 2 e 3 e 4 e    
G|----------------------------------------------------------------|
D|----------------------------------------------------------------|
A|2-2-2-2---2-2-2---2-2-2---2-2-----------------------------------|
E|------------------------------2-3-3-3-3---3-3-3---3-3-3---3-3-3-|

  1 e 2 e 3 e 4 e 1 e 2 e 3 e 4 e 1 e 2 e 3 e 4 e 1 e 2 e 3 e 4 e     
G|----------------------------------------------------------------|
D|--------------------------0-2-0-4-4-4-4---4-4-4---4-4-4---4-4-4-|
A|5-5-5-5---5-5-5---5-5-5-----------------------------------------|
E|----------------------------------------------------------------|

Prechorus 1:
  1 e 2 e 3 e 4 e 1 e 2 e 3 e 4 e 1 e 2 e 3 e 4 e 1 e 2 e 3 e 4 e    
G|----------------------------------------------------------------|
D|7-7-7-7-7-7-7-7-7-7-7-7-7-7-7-7-5-5-5-5-5-5-5-5-5-5-5-5---------|
A|--------------------------------------------------------4-4-4-4-|
E|----------------------------------------------------------------|

Chorus 1:
  1 e 2 e 3 e 4 e 1 e 2 e 3 e 4 e 1 e 2 e 3 e 4 e 1 e 2 e 3 e 4 e   
G|----------------------------------------------------------------|
D|----------------------------------------------------------------|
A|5-----5---5-5-----5---5---------2-----2---2-2-----2---2---------|
E|------------------------3-3---3-------------------------3-3---3-|

  1 e 2 e 3 e 4 e 1 e 2 e 3 e 4 e 1 e 2 e 3 e 4 e 1 e 2 e 3 e 4 e   
G|----------------------------------------------------------------|
D|----------------------------------------------------------------|
A|5-----5---5-5-----5---5---------2-----2---2-2-----2---2---------|
E|------------------------3-3---3-------------------------3-3---3-|

Postchorus 1:
  1 e 2 e 3 e 4 e 1 e 2 e 3 e 4 e 1 e 2 e 3 e 4 e 1 e 2 e 3 e 4 e    
G|----------------------------------------------------------------|
D|----------------------------------------------------------------|
A|2-2-2-2-----------------------0-2-2-2-2-------------------------|
E|------------------------------------------------5-------0-------|

Verse 2:
  1 e 2 e 3 e 4 e 1 e 2 e 3 e 4 e 1 e 2 e 3 e 4 e 1 e 2 e 3 e 4 e    
G|----------------------------------------------------------------|
D|----------------------------------------------------------------|
A|2-2-2-2-2-2-2-2-2-2-2-2-2-2-2-2---------------------------------|
E|--------------------------------3-3-3-3-3-3-3-3-3-3-3-3-3-3-3-3-|

  1 e 2 e 3 e 4 e 1 e 2 e 3 e 4 e 1 e 2 e 3 e 4 e 1 e 2 e 3 e 4 e     
G|----------------------------------------------------------------|
D|--------------------------------4-4-4-4-4-4-4-4-4-4-4-4-7-7-7-7-|
A|5-5-5-5-5-5-5-5-5-5-5-5-5-5-5-5---------------------------------|
E|----------------------------------------------------------------|

  1 e 2 e 3 e 4 e 1 e 2 e 3 e 4 e 1 e 2 e 3 e 4 e 1 e 2 e 3 e 4 e    
G|----------------------------------------------------------------|
D|----------------------------------------------------------------|
A|2-2---2-2-2---2-2-2---2-5-5-------------------------------------|
E|--------------------------------3-3---3-3-3---3-3-3---3-3-3-5-3-|

  1 e 2 e 3 e 4 e 1 e 2 e 3 e 4 e 1 e 2 e 3 e 4 e 1 e 2 e 3 e 4 e     
G|----------------------------------------------------------------|
D|--------------------------------4-4---4-4-4---4-4-4---4-7-4-4-4-|
A|5-5---5-5-5---5-5-5---5-5-5-7-5---------------------------------|
E|----------------------------------------------------------------|

Prechorus 2:
  1 e 2 e 3 e 4 e 1 e 2 e 3 e 4 e 1 e 2 e 3 e 4 e 1 e 2 e 3 e 4 e    
G|----------------------------------------------------------------|
D|7-7-7-7-7-7-7-7-7-7-7-7-7-7-7-7-5-5-5-5-5-5-5-5-5-5-5-5-7-7-7-7-|
A|----------------------------------------------------------------|
E|----------------------------------------------------------------|

Chorus 2:
  1 e 2 e 3 e 4 e 1 e 2 e 3 e 4 e 1 e 2 e 3 e 4 e 1 e 2 e 3 e 4 e   
G|----------------------------------------------------------------|
D|----------------------------------------------------------------|
A|5-----5---5-5-----5---5---------2-----2---2-2-----2---2---------|
E|------------------------3-3---3-------------------------3-3---3-|

  1 e 2 e 3 e 4 e 1 e 2 e 3 e 4 e 1 e 2 e 3 e 4 e 1 e 2 e 3 e 4 e   
G|----------------------------------------------------------------|
D|----------------------------------------------------------------|
A|5-----5---5-5-----5---5---------2-----2---2-2---0-0---0-0-0-0-0-|
E|------------------------3-3---3---------------------------------|

Brige 1:
  1 e 2 e 3 e 4 e 1 e 2 e 3 e 4 e 1 e 2 e 3 e 4 e 1 e 2 e 3 e 4 e   
G|----------------------------------------------------------------|
D|----------------------------------------------------------------|
A|0-0-0-0-0-0-0-0-0-0-0-0-0-0-0-0-2-2-2-2-2-2-2-2-----------------|
E|------------------------------------------------3-3-3-3-3-3-3-3-|

  1 e 2 e 3 e 4 e 1 e 2 e 3 e 4 e 1 e 2 e 3 e 4 e 1 e 2 e 3 e 4 e  
G|----------------------------------------------------------------|
D|----------------------------------------------------------------|
A|0-0-0-0-0-0-0-0-0-0-0-0-0-0-0-0-2-2-2-2-2-2-2-2-0-0-0-0-0-0-0-0-|
E|----------------------------------------------------------------|

Bridge 2:
  1 e 2 e 3 e 4 e 1 e 2 e 3 e 4 e 1 e 2 e 3 e 4 e 1 e 2 e 3 e 4 e  
G|----------------------------------------------------------------|
D|----------------------------------------------------------------|
A|--------------------------------2-2-2-2-2-2-2-2-2-2-2-2-2-2-2-2-|
E|3---------------3-3-3-3-3-3-3-3---------------------------------|

  1 e 2 e 3 e 4 e 1 e 2 e 3 e 4 e 1 e 2 e 3 e 4 e 1 e 2 e 3 e 4 e  
G|----------------------------------------------------------------|
D|----------------------------------------------------------------|
A|--------------------------------0-0-0-0-0-0-0-0-0-0-0-0-0-0-0-0-|
E|3-3-3-3-3-3-3-3-3-3-3-3-3-3-3-3---------------------------------|

Chorus 3:
  1 e 2 e 3 e 4 e 1 e 2 e 3 e 4 e 1 e 2 e 3 e 4 e 1 e 2 e 3 e 4 e   
G|----------------------------------------------------------------|
D|----------------------------------------------------------------|
A|5-------------------------------2-----2---2-2-----2---2---------|
E|------------------------3-------------------------------3-3---3-|

  1 e 2 e 3 e 4 e 1 e 2 e 3 e 4 e 1 e 2 e 3 e 4 e 1 e 2 e 3 e 4 e   
G|----------------------------------------------------------------|
D|----------------------------------------------------------------|
A|5-----5---5-5-----5---5-7-------2-----2---2-2---0-0---0-0-0-0-0-|
E|----------------------------------------------------------------|

  1 e 2 e 3 e 4 e 1 e 2 e 3 e 4 e 1 e 2 e 3 e 4 e 1 e 2 e 3 e 4 e   
G|----------------------------------------------------------------|
D|----------------------------------------------------------------|
A|2-----2---2-2-----2---2---------5-----5---5-5-----5---5-7-7-7-5-|
E|------------------------3-3---3---------------------------------|

  1 e 2 e 3 e 4 e 1 e 2 e 3 e 4 e 1 e 2 e 3 e 4 e 1 e 2 e 3 e 4 e   
G|----------------------------------------------------------------|
D|----------------------------------------------------------------|
A|2-----2---2-2-----2---2---------5-----5---5-5-----5---5-4-4-4-4-|
E|------------------------3-3---3---------------------------------|

  1 e 2 e 3 e 4 e 1 e 2 e 3 e 4 e 1 e 2 e 3 e 4 e 1 e 2 e 3 e 4 e   
G|----------------------------------------------------------------|
D|------------------------5-5-5-5---------------------------------|
A|5-5-5-5-5-5-5-5-5-5-5-5---------2-2-2-2-2-2-2-2-2-2-2-2---------|
E|--------------------------------------------------------3-3-3-3-|

  1 e 2 e 3 e 4 e 1 e 2 e 3 e 4 e 1 e 2 e 3 e 4 e 1 e 2 e 3 e 4 e   
G|----------------------------------------------------------------|
D|------------------------7-7-7-5---------------------------------|
A|5-5-5-5-5-5-5-5-5-5-5-5---------2-2-2-2-2-2-2-2-0-0-0-0-0-0-0-0-|
E|----------------------------------------------------------------|

Outro:
  1 e 2 e 3 e 4 e 1 e 2 e 3 e 4 e 1 e 2 e 3 e 4 e 1 e 2 e 3 e 4 e   
G|----------------------------------------------------------------|
D|----------------------------------------------------------------|
A|5-------------------------------2-------------------------------|
E|------------------------------------------------3---------------|

  1 e 2 e 3 e 4 e 1 e 2 e 3 e 4 e 1 e 2 e 3 e 4 e 1 e 2 e 3 e 4 e   
G|----------------------------------------------------------------|
D|----------------------------------------------------------------|
A|5-------------------------------2-------------------------------|
E|------------------------------------------------3---------------|
  1 e 2 e 3 e 4 e 1 e 2 e 3 e 4 e 1 e 2 e 3 e 4 e 1 e 2 e 3 e 4 e   
G|----------------------------------------------------------------|
D|----------------------------------------------------------------|
A|5---------------------------------------------------------------|
E|----------------------------------------------------------------|

            
            
Suggest correction
Creating personal tab
Creating personal tab
You can edit any tab online and save it as your Personal.

You can edit, replace or remove any tab part or add personal notes – all changes will be seen only by you.

Personal tabs can be accessed anytime from any device, even offline.
Learn more »
Give kudos to tab author, rate the tab!
1 2 3 4 5
comments
print report bad tab
1 comment total.
0 reply
eva__ruth 10 May 30, 2017 04:42 PM

awesome job ☺️ one of my favourite songs so thank you!

guest
You may want to rate the tab now too:
select rating
Wanna post a correction for this tab? Suggest correction