Oops, an error
Loading. Please wait.

Not As Bright bass

version 1
version 1

Whole song

Interactive

433 views 1 this week
no commentswrite comment
1 2 3 4 5
2 more votes to show rating
add to favorites
×
Save as Personal and add changes to this tab that will be seen only by you. Learn more ›
×
You can save this tab as Personal to edit and correct it or add notes. All changes will be seen only by you. Learn more »
launch autoscroll
font size
0
reset
guitar tuner
edit
Autoscroll
slow
fast
+/-
esc
set tempo
stop
http://www.kensingtonband.com/

 Not As Bright


                                                                      Kensington
Bass

      |--3--|  3   |-3| |--3--|  3   |-3|
      E  E  E  E.  E  S E  E  E  E.  E  S
F#||--------------------------------------|
C#||--------------------------------------|
G#||--------------------------------------|
C#||--2-----2------2----2-----2------2----|


  |--3--|  3   |-3| |--3--|  3   |-3|    |----3----|
  E  E  E  E.  E  S E  E  E  E.  E  S    Q    Q    Q    Q    Q
--------------------------------------|---------------------------|-------|
--------------------------------------|---------------------------|-------|
--------------------------------------|---------------------------|-------|
--2-----2------2----2-----2------2----|--2------------------------|-------|


  |----3----|                         |----3----|
  Q    Q    Q    Q    Q               Q    Q    Q    Q    Q
---------------------------|-------|---------------------------|-------|
---------------------------|-------|---------------------------|-------|
---------------------------|-------|---------------------------|-------|
--2------------------------|-------|--2----2----2--------------|-------|


  |----3----|
  Q    Q    Q    Q    Q                           W
---------------------------|-------------------|--------------------|
---------------------------|-------------------|--------------------|
---------------------------|-------------------|--3S----------------|
--2------------------------|-------------------|--------------------|


  W                    Q    Q    Q    Q               W
--------------------|----------------------|-------|--------------------|
--------------------|----------------------|-------|--------------------|
--------------------|----------------------|-------|--3S----------------|
--7S----------------|--2-------------------|-------|--------------------|


  W                    Q    Q    Q    Q               Q    Q    Q    Q
--------------------|----------------------|-------|----------------------|
--------------------|----------------------|-------|----------------------|
--7S----------------|----------------------|-------|----------------------|
--------------------|--2-------------------|-------|--5----5----5----5----|


  Q    Q    Q    Q       Q    Q    Q    Q       Q    Q    Q    Q
----------------------|----------------------|----------------------|
----------------------|----------------------|----------------------|
----------------------|--5----5----5----5----|--6----6----6----6----|
--5----5----5----5----|----------------------|----------------------|


  |--3--|  3   |-3| |--3--|  3   |-3|    |--3--|  3   |-3| |--3--|  3   |-3|
  E  E  E  E.  E  S E  E  E  E.  E  S    E  E  E  E.  E  S E  E  E  E.  E  S
--------------------------------------|--------------------------------------|
--------------------------------------|--------------------------------------|
--------------------------------------|--------------------------------------|
--2-----2------2----2-----2------2----|--2-----2------2----2-----2------2----|


  |--3--|  3   |-3| |--3--|  3   |-3|    |--3--|  3   |-3| |--3--|  3   |-3|
  E  E  E  E.  E  S E  E  E  E.  E  S    E  E  E  E.  E  S E  E  E  E.  E  S
--------------------------------------|--------------------------------------|
--------------------------------------|--------------------------------------|
--------------------------------------|--------------------------------------|
--2-----2------2----2-----2------2----|--2-----2------2----4-----4------4----|


  Q    Q    Q    Q       Q    Q    Q    Q       Q    Q    Q    Q
----------------------|----------------------|----------------------|
----------------------|----------------------|----------------------|
----------------------|----------------------|--5----5----5----5----|
--5----5----5----5----|--5----5----5----5----|----------------------|


                              |--3--|  3   |-3| |--3--|  3   |-3|
  W                           E  E  E  E.  E  S E  E  E  E.  E  S
-------------------|-------|--------------------------------------|
-------------------|-------|-----------5--------5-----4------0----|
--6----------------|-------|--------------------------------------|
-------------------|-------|--2-----2------2----------------------|


  |--3--|  3   |-3| |--3--|  3   |-3|    |--3--|  3   |-3| |--3--|  3   |-3|
  E  E  E  E.  E  S E  E  E  E.  E  S    E  E  E  E.  E  S E  E  E  E.  E  S
--------------------------------------|--------------------------------------|
-----------2--------2-----0-----------|--------------------------------------|
---------------------------------3----|-----------2--------2-----0------2----|
--2-----2------2----------------------|--2-----2------2----------------------|


  |--3--|  3   |-3| |--3--|  3   |-3|    |--3--|  3   |-3| |--3--|  3   |-3|
  E  E  E  E.  E  S E  E  E  E.  E  S    E  E  E  E.  E  S E  E  E  E.  E  S
--------------------------------------|--------------------------------------|
-----------2--------------2------2----|-----------5--------5-----4------0----|
--------------------------------------|--------------------------------------|
--2-----2------2----2-----------------|--2-----2------2----------------------|


  |--3--|  3   |-3| |--3--|  3   |-3|    |--3--|  3   |-3| |--3--|  3   |-3|
  E  E  E  E.  E  S E  E  E  E.  E  S    E  E  E  E.  E  S E  E  E  E.  E  S
--------------------------------------|--------------------------------------|
-----------2--------2-----0-----------|--------------------------------------|
---------------------------------3----|-----------2--------2-----0------2----|
--2-----2------2----------------------|--2-----2------2----------------------|


  |--3--|  3   |-3| |--3--|  3   |-3|    |--3--|  3   |-3| |--3--|  3   |-3|
  E  E  E  E.  E  S E  E  E  E.  E  S    E  E  E  E.  E  S E  E  E  E.  E  S
--------------------------------------|--------------------------------------|
-----------2--------------2------2----|--------------------------------------|
--------------------------------------|--------------------------------------|
--2-----2------2----2-----------------|--2-----2------2----2-----2------2----|


  |--3--|  3   |-3| |--3--|  3   |-3|    |--3--|  3   |-3| |--3--|  3   |-3|
  E  E  E  E.  E  S E  E  E  E.  E  S    E  E  E  E.  E  S E  E  E  E.  E  S
--------------------------------------|--------------------------------------|
--------------------------------------|--------------------------------------|
--------------------------------------|--------------------------------------|
--2-----2------2----2-----2------2----|--2-----2------2----2-----2------2----|


  |--3--|  3   |-3| |--3--|  3   |-3|    |--3--|  3   |-3| |--3--|  3   |-3|
  E  E  E  E.  E  S E  E  E  E.  E  S    E  E  E  E.  E  S E  E  E  E.  E  S
--------------------------------------|--------------------------------------|
--------------------------------------|--------------------------------------|
--------------------------------------|--------------------------------------|
--2-----2------2----2-----2------2----|--2-----2------2----2-----2------2----|


  |--3--|  3   |-3| |--3--|  3   |-3|    |--3--|  3   |-3| |--3--|  3   |-3|
  E  E  E  E.  E  S E  E  E  E.  E  S    E  E  E  E.  E  S E  E  E  E.  E  S
--------------------------------------|--------------------------------------|
--------------------------------------|--------------------------------------|
--------------------------------------|--------------------------------------|
--2-----2------2----2-----2------2----|--2-----2------2----2-----2------2----|


  |--3--|  3   |-3| |--3--|  3   |-3|    |--3--|  |-3| |-3| |--3--|  |-3| |-3|
  E  E  E  E.  E  S E  E  E  E.  E  S    E  E  E  E  S E  S E  E  E  E  S E  S
--------------------------------------|----------------------------------------|
--------------------------------------|----------------------------------------|
--------------------------------------|--3-----3--3----3----3-----3--3----3----|
--2-----2------2----2-----2------2----|----------------------------------------|


   |--3--|  |-3| |-3| |--3--|  |-3| |-3|
   E  E  E  E  S E  S E  E  E  E  S E  S
-----------------------------------------|
-----------------------------------------|
-----------------------------------------|
--\7-----7--7----7----7-----7--7----7----|


  |--3--|  |-3| |-3| |--3--|  |-3| |-3|
  E  E  E  E  S E  S E  E  E  E  S E  S
----------------------------------------|
----------------------------------------|
----------------------------------------|
--2-----2--2----2----2-----2--2----2----|


  |--3--|  |-3| |-3| |--3--|  |-3| |-3|
  E  E  E  E  S E  S E  E  E  E  S E  S
----------------------------------------|
----------------------------------------|
----------------------------------------|
--2-----2--2----2----2-----2--2----2----|


  |--3--|  |-3| |-3| |--3--|  |-3| |-3|
  E  E  E  E  S E  S E  E  E  E  S E  S
----------------------------------------|
----------------------------------------|
--3-----3--3----3----3-----3--3----3----|
----------------------------------------|


   |--3--|  |-3| |-3| |--3--|  |-3| |-3|
   E  E  E  E  S E  S E  E  E  E  S E  S
-----------------------------------------|
-----------------------------------------|
-----------------------------------------|
--\7-----7--7----7----7-----7--7----7----|


  |--3--|  |-3| |-3| |--3--|  |-3| |-3|
  E  E  E  E  S E  S E  E  E  E  S E  S
----------------------------------------|
----------------------------------------|
----------------------------------------|
--2-----2--2----2----2-----2--2----2----|


  |--3--|  |-3| |-3| |--3--|  |-3| |-3|    |--3--|  3   |-3| 3
  E  E  E  E  S E  S E  E  E  E  S E  S    E  E  E  E.  E  S H.
----------------------------------------|---------------------------------|
----------------------------------------|---------------------------------|
----------------------------------------|---------------------------------|
--2-----2--2----2----2-----2--2----2----|--5-----5------5----5------------|


                      |--3--|  3   |-3| 3
  W                   E  E  E  E.  E  S H.
-------------------|---------------------------------|
-------------------|---------------------------------|
-------------------|--5-----5------5----5------------|
--L----------------|---------------------------------|


  |--3--|  3   |-3| 3               |--3--|  3   |-3| |--3--|  3   |-3|
  E  E  E  E.  E  S H.              E  E  E  E.  E  S E  E  E  E.  E  S
---------------------------------|--------------------------------------|
---------------------------------|--------------------------------------|
--6-----6------6----6------------|--------------------------------------|
---------------------------------|--2-----2------2----2-----2------2----|


  |--3--|  3   |-3| |--3--|  3   |-3|    |--3--|  3   |-3| |--3--|  3   |-3|
  E  E  E  E.  E  S E  E  E  E.  E  S    E  E  E  E.  E  S E  E  E  E.  E  S
--------------------------------------|--------------------------------------|
--------------------------------------|--------------------------------------|
--------------------------------------|--------------------------------------|
--2-----2------2----2-----2------2----|--2-----2------2----2-----2------2----|


  |--3--|  3   |-3| |--3--|  3   |-3|    |--3--|  3   |-3| |--3--|  3   |-3|
  E  E  E  E.  E  S E  E  E  E.  E  S    E  E  E  E.  E  S E  E  E  E.  E  S
--------------------------------------|--------------------------------------|
--------------------------------------|--------------------------------------|
--------------------------------------|--------------------------------------|
--2-----2------2----4-----4------4----|--5-----5------5----5-----5------5----|


  |--3--|  3   |-3| |--3--|  3   |-3|    |--3--|  3   |-3| |--3--|  3   |-3|
  E  E  E  E.  E  S E  E  E  E.  E  S    E  E  E  E.  E  S E  E  E  E.  E  S
--------------------------------------|--------------------------------------|
--------------------------------------|--------------------------------------|
--------------------------------------|--5-----5------5----5-----5------5----|
--5-----5------5----5-----5------5----|--------------------------------------|


                              |--3--|  3   |-3| |--3--|  3   |-3|
  W                           E  E  E  E.  E  S E  E  E  E.  E  S
-------------------|-------|--------------------------------------|
-------------------|-------|-----------5--------5-----4------0----|
--6----------------|-------|--------------------------------------|
-------------------|-------|--2-----2------2----------------------|


  |--3--|  3   |-3| |--3--|  3   |-3|    |--3--|  3   |-3| |--3--|  3   |-3|
  E  E  E  E.  E  S E  E  E  E.  E  S    E  E  E  E.  E  S E  E  E  E.  E  S
--------------------------------------|--------------------------------------|
-----------2--------2-----0-----------|--------------------------------------|
---------------------------------3----|-----------2--------2-----0------2----|
--2-----2------2----------------------|--2-----2------2----------------------|


  |--3--|  3   |-3| |--3--|  3   |-3|    |--3--|  3   |-3| |--3--|  3   |-3|
  E  E  E  E.  E  S E  E  E  E.  E  S    E  E  E  E.  E  S E  E  E  E.  E  S
--------------------------------------|--------------------------------------|
-----------2--------------2------2----|-----------5--------5-----4------0----|
--------------------------------------|--------------------------------------|
--2-----2------2----2-----------------|--2-----2------2----------------------|


  |--3--|  3   |-3| |--3--|  3   |-3|    |--3--|  3   |-3| |--3--|  3   |-3|
  E  E  E  E.  E  S E  E  E  E.  E  S    E  E  E  E.  E  S E  E  E  E.  E  S
--------------------------------------|--------------------------------------|
-----------2--------2-----0-----------|--------------------------------------|
---------------------------------3----|-----------2--------2-----0------2----|
--2-----2------2----------------------|--2-----2------2----------------------|


  |--3--|  3   |-3| |--3--|  3   |-3|    |--3--|  3   |-3| |--3--|  3   |-3|
  E  E  E  E.  E  S E  E  E  E.  E  S    E  E  E  E.  E  S E  E  E  E.  E  S
--------------------------------------|--------------------------------------|
-----------2--------------2------2----|--------------------------------------|
--------------------------------------|--------------------------------------|
--2-----2------2----2-----------------|--5-----5------5----5-----5------5----|


  |--3--|  3   |-3| |--3--|  3   |-3|    |--3--|  3   |-3| |--3--|  3   |-3|
  E  E  E  E.  E  S E  E  E  E.  E  S    E  E  E  E.  E  S E  E  E  E.  E  S
--------------------------------------|--------------------------------------|
--------------------------------------|--------------------------------------|
--------------------------------------|--2-----2------2----2-----5------6----|
--7-----7------7----7-----7------7----|--------------------------------------|


  |--3--|  3   |-3| 3               |--3--|  3   |-3| |--3--|  3   |-3|
  E  E  E  E.  E  S H.              E  E  E  E.  E  S E  E  E  E.  E  S
---------------------------------|--------------------------------------|
---------------------------------|--------------------------------------|
--7-----7------7----7------------|--7-----7------7----7-----7------7----|
---------------------------------|--------------------------------------|


  |--3--|  3   |-3| |--3--|  3   |-3|
  E  E  E  E.  E  S E  E  E  E.  E  S
--------------------------------------|
--------------------------------------|
--9-----9------9----9-----9------9----|
--------------------------------------|


   |---3--|  3    |-3|  |---3--|  3    |-3|    |--3--|  3   |-3| 3
   E  E   E  E.   E  S  E  E   E  E.   E  S    E  E  E  E.  E  S H.
--------------------------------------------|---------------------------------|
--------------------------------------------|---------------------------------|
--10-----10------10----13-----10------12----|--7-----7------7----7------------|
--------------------------------------------|---------------------------------|


  |----3----|    |----3----|            |--3-|  |----3----|
  Q    Q    Q    Q    Q    Q       Q    Q    E  Q    Q    Q
--------------------------------|------------------------------|
--------------------------------|------------------------------|
--------------------------------|------------------------------|
--2----2----2----2--------------|-------2-------2----2----2----|


  |----3----|    |----3----|            |--3-|  |----3----|
  Q    Q    Q    Q    Q    Q       Q    Q    E  Q    Q    Q
--------------------------------|------------------------------|
--------------------------------|------------------------------|
--------------------------------|------------------------------|
--2----2----2----2--------------|-------2-------2----2----2----|


  |--3-|  |----3----|    3              |--3-|  |----3----|
  Q    E  Q    Q    Q    Q.        Q    Q    E  Q    Q    Q
--------------------------------|------------------------------|
--------------------------------|------------------------------|
--------------------------------|------------------------------|
--2-------2---------------------|-------2-------2----2----2----|


  |----3----|    |----3----|       |----3----|    |----3----|
  Q    Q    Q    Q    Q    Q       Q    Q    Q    Q    Q    Q
--------------------------------|--------------------------------|
--------------------------------|--------------------------------|
--3----3----3----3--------------|--6----6----6----6--------------|
--------------------------------|--------------------------------|


  |----3----|    |----3----|            |--3-|  |----3----|
  Q    Q    Q    Q    Q    Q       Q    Q    E  Q    Q    Q
--------------------------------|------------------------------|
--------------------------------|------------------------------|
--------------------------------|------------------------------|
--2----2----2----2--------------|-------2-------2----2----2----|


  |----3----|    |----3----|            |--3-|  |----3----|
  Q    Q    Q    Q    Q    Q       Q    Q    E  Q    Q    Q
--------------------------------|------------------------------|
--------------------------------|------------------------------|
--------------------------------|------------------------------|
--2----2----2----2--------------|-------2-------2----2----2----|


  |--3-|  |----3----|    3              |--3-|  |----3----|
  Q    E  Q    Q    Q    Q.        Q    Q    E  Q    Q    Q
--------------------------------|------------------------------|
--------------------------------|------------------------------|
--------------------------------|------------------------------|
--2-------2---------------------|-------2-------2----2----2----|


  |----3----|    |----3----|       |----3----|    |----3----|
  Q    Q    Q    Q    Q    Q       Q    Q    Q    Q    Q    Q
--------------------------------|--------------------------------|
--------------------------------|--------------------------------|
--3----3----3----3--------------|--6----6----6----6--------------|
--------------------------------|--------------------------------|


  |----3----|    |----3----|            |--3-|  |----3----|
  Q    Q    Q    Q    Q    Q       Q    Q    E  Q    Q    Q
--------------------------------|------------------------------|
--------------------------------|------------------------------|
--------------------------------|------------------------------|
--5----5----5----5--------------|-------5-------5----5----5----|


  |----3----|    |----3----|            |--3-|  |----3----|
  Q    Q    Q    Q    Q    Q       Q    Q    E  Q    Q    Q
--------------------------------|------------------------------|
--------------------------------|------------------------------|
--5----5----5----5--------------|-------6-------6----6----6----|
--------------------------------|------------------------------|


  |----3----|    |----3----|            |--3-|  |----3----|
  Q    Q    Q    Q    Q    Q       Q    Q    E  Q    Q    Q
--------------------------------|------------------------------|
--------------------------------|------------------------------|
--7----7----7----3--------------|-------3-------6----6----6----|
--------------------------------|------------------------------|


  |----3----|    |----3----|            |--3-|  |----3----|
  Q    Q    Q    Q    Q    Q       Q    Q    E  Q    Q    Q
--------------------------------|------------------------------|
--------------------------------|------------------------------|
--7----7----7----3--------------|-------3-------5----5----5----|
--------------------------------|------------------------------|


  E  E  E  E  E  E  E  E     E  E  E  E  E  E  E  E
--------------------------|--------------------------|
--------------------------|--------------------------|
-----------2--3-----3-----|--3-----3--0--3--0--3--0--|
--2-----2-----------------|--------------------------|


  E  E  E  E  E  E  E  E     E  E  E  E  E  E  E  E
--------------------------|--------------------------|
--------------------------|--------------------------|
-----------2--3-----3-----|--3-----3-----------0-----|
--2-----2-----------------|-----------2--4--5-----4--|


  E  E  E  E  E  E  E  E     E  E  E  E  E  E  E  E
--------------------------|--------------------------|
--------------------------|--------------------------|
-----------2--3-----3-----|--3-----3--0--3--0--3--0--|
--2-----2-----------------|--------------------------|


  E  E  E  E  E  E  E  E     E  E  E  E  E  E  E  E
--------------------------|--------------------------|
--------------------------|--------------------------|
-----------2--3-----3-----|--3-----3-----------0-----|
--2-----2-----------------|-----------2--4--5-----4--|


  |----3----|    |----3----|
  Q    Q    Q    Q    Q    Q
--------------------------------||
--------------------------------||
--------------------------------||
--2----2----2----2--------------||


Duration Legend
---------------
W - whole
H - half
Q - quarter
E - 8th
S - 16th
T - 32nd
X - 64th
. - note dotted
|-n-|  - n-tuplets


Tablature Legend
----------------
L - tied note
x - dead note
g - grace note
(n) - ghost note
> - accentuded note
NH - natural harmonic
AH - artificial harmonic
TH - tapped harmonic
SH - semi harmonic
PH - pitch harmonic
h - hammer on
p - pull off
b - bend
br - bendRelease
pb - preBend
pbr - preBendRelease
brb - bendReleaseBend
\n/ - tremolo bar dip
\n - tremolo bar dive
-/n - tremolo bar Release up
/n\ - tremolo bar inverted dip
/n - tremolo bar return
-\n - tremolo bar Release down
S - shift slide
s - legato slide
/ -  slide into from below or out of upwards
\ -  slide into from above or out of downwards
~ - vibrato
W - wide vibrato
tr - trill
TP - tremolo picking
T - tapping
S - slap
P - pop
< - fade in
^ - brush up
v - brush down

            
            
Suggest correction
Creating personal tab
Creating personal tab
You can edit any tab online and save it as your Personal.

You can edit, replace or remove any tab part or add personal notes – all changes will be seen only by you.

Personal tabs can be accessed anytime from any device, even offline.
Learn more »
Give kudos to tab author, rate the tab!
1 2 3 4 5
comments
print report bad tab
guest
You may want to rate the tab now too:
select rating
Wanna post a correction for this tab? Suggest correction