Oops, an error
Loading. Please wait.

Streets bass

version 1
version 1

Whole song

Interactive

898 views 3 this week
no commentswrite comment
1 2 3 4 5
1 last vote to show rating
add to favorites
×
Save as Personal and add changes to this tab that will be seen only by you. Learn more ›
×
You can save this tab as Personal to edit and correct it or add notes. All changes will be seen only by you. Learn more »
launch autoscroll
font size
0
reset
guitar tuner
edit
Autoscroll
slow
fast
+/-
esc
set tempo
stop
Author
Difficulty
-------------------------------------------------------------------------------
                             Kensington - Streets
-------------------------------------------------------------------------------
Tabbed by: Despaignef
E-mail: 

Tuning: EADG (Standard)

Intro
G|---------------------------------------------------|
D|---------------------------------------------------|
A|-----------------------6-6-6-6---------------------|
E|-2-2-2-2----2-2-2-2---------------7-7-7-7-7-7-7-7--|

G|---------------------------------------------------|
D|---------------------------------------------------|
A|---------------------------------------------------|
E|-2-2-2-2----2-2-2-2----9-9-9-9----7-7-7-7-7-7-7-7--|

Verse
G|-----------------------------------|
D|-----------------------------------|
A|-------------6~--------------------|
E|-2~----4~----------------7~--------|

G|-----------------------------------|
D|-----------------------------------|
A|-------------6~--------------------|
E|-2~----4~------------7~------------|

Pre-chorus
G|---------------------------------------|
D|---------------------------------------|
A|---------------------------------------|
E|-9-9-9-9-9-9-9-9-9----7-7-7-7-7-7-7-7--|

G|----------------------------------|
D|----------------------------------|
A|----------------------6--6--6-----|
E|-9-9-9-9-9-9-9-9-9-------------6\-|

Chorus
G|---------------------------------------------------|
D|---------------------------------------------------|
A|-----------------------6-6-6-6---------------------|
E|-2-2-2-2----2-2-2-2---------------7-7-7-7-7-7-7-7--|

G|---------------------------------------------------|
D|---------------------------------------------------|
A|---------------------------------------------------|
E|-2-2-2-2----2-2-2-2----9-9-9-9----7-7-7-7-7-7-7-7--|

Verse

G|------------------------------------------------------------------------------|
D|------------------------------------------------------------------------------|
A|----------------------------------------6--6-6----6--6-6----6--6-6------------|
E|-2--2-2----2--2-2----2--2-2----4--4-4---------------------------------7--7-7--|

G|-------------------------------------------------------------------------------|
D|-------------------------------------------------------------------------------|
A|-----------------------------------------6--6-6----6--6-6----------------------|
E|-2--2-2----2--2-2----2--2-2----4--4-4------------------------7--7-7----7--7-7--|

Pre-chorus
G|---------------------------------------|
D|---------------------------------------|
A|---------------------------------------|
E|-9-9-9-9-9-9-9-9-9----7-7-7-7-7-7-7-7--|

G|----------------------------------|
D|----------------------------------|
A|----------------------6--6--6-----|
E|-9-9-9-9-9-9-9-9-9-------------6\-|

Chorus
G|---------------------------------------------------|
D|---------------------------------------------------|
A|-----------------------6-6-6-6---------------------|
E|-2-2-2-2----2-2-2-2---------------7-7-7-7-7-7-7-7--|

G|---------------------------------------------------|
D|---------------------------------------------------|
A|---------------------------------------------------|
E|-2-2-2-2----2-2-2-2----9-9-9-9----7-7-7-7-7-7-7-7--|

G|---------------------------------------------------|
D|---------------------------------------------------|
A|-----------------------6-6-6-6---------------------|
E|-2-2-2-2----2-2-2-2---------------7-7-7-7-7-7-7-7--|

G|---------------------------------------------------|
D|---------------------------------------------------|
A|---------------------------------------------------|
E|-2-2-2-2----2-2-2-2----9-9-9-9----7-7-7-7-7-7-7-7--|

Bridge
G|-------------------------------------------------------------------------------------------|
D|-------------------------------------------------------------------------------------------|
A|-----------------------------------------------6---6---6--6-6---6--------------------------|
E|-9---9---9---9-9--9-9----7---7---7--7-7---7--------------------------2---2---2--2-2---2-2--|

G|-------------------------------------------------------------------|
D|-------------------------------------------------------------------|
A|-----------------------------------------------6---6---6--6-6---6--|
E|-9---9---9---9-9--9-9----7---7---7--7-7---7------------------------|

G|---------------------------------------------|
D|---------------------------------------------|
A|---------------------------------------------|
E|-9---9---9---9-9--9-9----9---9---9---9-9--9-9|

G|-----------------------------------|
D|-----------------------------------|
A|-----------------------------------|
E|-2~--------------------------------|

G|-----------------------------------|
D|-----------------------------------|
A|-6~--------------------------------|
E|-----------------------------------|

Chorus
G|---------------------------------------------------|
D|---------------------------------------------------|
A|-----------------------6-6-6-6---------------------|
E|-2-2-2-2----2-2-2-2---------------7-7-7-7-7-7-7-7--|

G|---------------------------------------------------|
D|---------------------------------------------------|
A|---------------------------------------------------|
E|-2-2-2-2----2-2-2-2----9-9-9-9----7-7-7-7-7-7-7-7--|

Outro
G|---------------------------------------------------|
D|---------------------------------------------------|
A|-6-6-6-6----6-6-6-6--------------------------------|
E|-----------------------5-5-5-5----2-2-2-2-2-2-2-2--|

G|----------------------------------------------------------------------------------------------|
D|----------------------------------------------------------------------------------------------|
A|-6-6-6-6----6-6-6-6---------------------------------------------------------------------------|
E|-----------------------9-9-9-9--9--9----9-9-9-9--9--9----7-7-7-7--7--7----7-7-7-7--7--7---2~--|



| /  slide up
| \  slide down
| h  hammer-on
| p  pull-off
| ~  vibrato
| +  harmonic
| x  Mute note
===============================================================================



So, whenever they'll say that all we had is bound to fall
Oh, together we'll stay (when you get in our way, when you get in our way)
Strange, how everything seems to float in grey and drown in gold
Stay, and everything's save (when we're pulling our way, when we're pulling
Our own way down)

I'll rise and guess where I will go
I'll rise and guess where I (go)

Where do we go when the streets are calling (calling, calling)
How do we know when we each stop falling (falling, falling)

Say, that everything caves in on our way to grander goals
Wait, and everything's save (when we let it all in, let it all in)
How, letting it rain, our own distress, our own mistakes
Wait, till everything breaks (when we're pulling our way, when we're
Pulling our own way down)

I'll rise and guess where I will go
I'll rise and guess where I (go)

Where do we go when the streets are calling (calling, calling)
How do we know when we each stop falling (falling, falling)
Where do we go when the streets are calling (calling, calling)
How do we know when we each stop falling (falling, falling)

I'll rise and guess where I will go
I'll rise and guess where I will
I'll rise and guess where I will go
I'll rise and guess where I will

Where do we go when the streets are calling (calling, calling)
How do we know when we each stop falling (falling, falling)

Where do we go when the streets are calling (calling, calling)
How do we know when we each stop falling (falling, falling)
Where do we go when the streets are calling (calling, calling)
How do we know when we each stop falling (falling, falling)
Suggest correction
Creating personal tab
Creating personal tab
You can edit any tab online and save it as your Personal.

You can edit, replace or remove any tab part or add personal notes – all changes will be seen only by you.

Personal tabs can be accessed anytime from any device, even offline.
Learn more »
Give kudos to tab author, rate the tab!
1 2 3 4 5
comments
print report bad tab
guest
You may want to rate the tab now too:
select rating
Wanna post a correction for this tab? Suggest correction