Oops, an error
Loading. Please wait.

400 Slag bass

version 1
version 1

Whole song

Interactive

by Kent
2,457 views 1 this week
2 commentsread comments
1 2 3 4 5
2 more votes to show rating
add to favorites
×
Save as Personal and add changes to this tab that will be seen only by you. Learn more ›
×
You can save this tab as Personal to edit and correct it or add notes. All changes will be seen only by you. Learn more »
launch autoscroll
font size
0
reset
guitar tuner
edit
Autoscroll
slow
fast
+/-
esc
set tempo
stop
Author
Difficulty
The song is played with a pick

G----------------------------------------|
D-2-22-2-5-55-5-555------2-22-2-2-22-----|
A------------------4-44-4----------------|
E----------------------------------------|

He plays this line through out the song,

Sounds ok to me but if you see any errors please comment!
Suggest correction
Creating personal tab
Creating personal tab
You can edit any tab online and save it as your Personal.

You can edit, replace or remove any tab part or add personal notes – all changes will be seen only by you.

Personal tabs can be accessed anytime from any device, even offline.
Learn more »
Give kudos to tab author, rate the tab!
1 2 3 4 5
comments
print report bad tab
2 comments total.
0 reply
primoris morior 10 Jun 12, 2009 03:25 AM

it's actually

G----------------------------------------|
D-1-11-1-4-44-4-444------1-11-1-1-11-----|
A------------------2-22-2----------------|
E----------------------------------------|

0 reply
keeptrack 10 Sep 30, 2009 11:57 AM

This is How I think its played

G-----------------------
D----------------------- And so forth..
A-6-66-6-9-99-999-------
E-----------------7-77-7

or like that..Try it and It sounds right!

guest
You may want to rate the tab now too:
select rating
Wanna post a correction for this tab? Suggest correction