Oops, an error
Loading. Please wait.

Just Like Money Tab

by Kent
416 views 1 this week
no commentswrite comment
1 2 3 4 5
x 4
add to favorites
launch autoscroll
font size
0
reset
how to read this tab
guitar tuner
Autoscroll
slow
fast
+/-
esc
set tempo
stop
Help us to improve Ultimate-Guitar.com Take our survey!
×
Author
Difficulty
novice
                                          Artist - Kent
                                         ***************
                                      Song - Just Like Money
                                     ************************
                                       Album - Hagnesta Hill
                                      **********************
                                       Tabbed By - Ayreon77
                                      **********************


INTRO - Drums
**************

ELECTRIC GUITAR 1 - MAIN RIFF 1 - Play this each time it comes in
****************** *************
 Bm                G         F#m      Bm                G         F#m
[-----------------|------------------|-----------------|------------------]
[-----------------|------------------|-----------------|------------------]
[--s--7---7-------|------------------|--s--7---7-------|------------------]
[-5\9---9---9-7-9-|---s--7---7-------|-5\9---9---9-7-9-|---s--7---7-------]
[-----------------|--5\9---9---9-7-9-|-----------------|--5\9---9---9-7-9-]
[-----------------|------------------|-----------------|------------------]
|play this just before main riff comes in |
|ELECTRIC GUITAR 2                        |
[-----------------------------------------]
[------7----------------------------------]
[------7----------------------------------]
[------9----then play this just ----------]
[---s--9-------before the words come in---]
[-12\--7----------------------------------]

------------------------------------------------------------------
VERSE 1
********
Bm                       G         A
I got a message from the screen subliminal
Bm                 G      A        Bm
Like a sign saying no-one cares no more
G                            A
And all the networks and the TV stations
G                       A
Feed me lies and simple explanations
G                             A                    Bm
But they can't fool me on the state of this nation love

------------------------------------------------------------------
CHORUS                                  ELECTRIC GUITAR RIFF 2
*******                                 ***********************
E            D       G        E         [--------------|--------------]
   You still need my hands to feel      [--------------|--------------]
          D       G        E            [--s--7---s-s--|--------------]
You still need my heart to bleed        [-7\9----7\9/7-|--s--7---s-s--]
           G          A         Bm      [--------------|-7\9----7\9/7-]
Cause your lips taste just like money   [------X3------|--------------]

------------------------------------------------------------------
VERSE 2
********
Bm                      G           A
You start a fire and it smells like chemicals
Bm                         G       A        Bm
As you get higher you will hit the all time low
G                            A
And does the network and the TV stations
G                          A
And the lies, the sex, the fake relations
G                            A                    Bm
Tell you something about the state of the nation love

------------------------------------------------------------------
CHORUS
------------------------------------------------------------------
BRIDGE
*******
E                    A
Concrete high rise I need no pitty
Bm               A
On the sky train crossed this city
E              A
Jesus died and God's gone missing
Bm                 A               E
Take your skin off it might fit me now
                 F#        A       Bm
Love is dead and you're so pretty, baby

------------------------------------------------------------------
CHORUS                                  ELECTRIC GUITAR RIFF 2
*******                                 ***********************
E            D       G        E         [--------------|--------------]
   You still need my hands to feel      [--------------|--------------]
          D       G        E            [--s--7---s-s--|--------------]
You still need my heart to bleed        [-7\9----7\9/7-|--s--7---s-s--]
           G          A         E       [--------------|-7\9----7\9/7-]
Cause your lips taste just like money   [------X3------|--------------]
          D       G        E
You still need my lungs to breathe
          D       G       E
You still need my eyes to see
           G          A         Bm
Cause your lips taste just like money


F#m       Bm
Just like money
F#m       Bm
Just like money
F#m       Bm
Just like money

play
F#m Bm to fade.......
Suggest correction
comments
print report bad tab
guest
You may want to rate the tab now too:
select rating
Wanna post a correction for this tab? Suggest correction