Oops, an error
Loading. Please wait.

Vinternoll2 bass

version 1
version 1

Whole song

Interactive

by Kent
1,315 views 1 this week
1 commentread comment
1 2 3 4 5
x 6
add to favorites
×
Save as Personal and add changes to this tab that will be seen only by you. Learn more ›
×
You can save this tab as Personal to edit and correct it or add notes. All changes will be seen only by you. Learn more »
launch autoscroll
font size
0
reset
guitar tuner
backing track
0:00
0:00
edit
Autoscroll
slow
fast
+/-
esc
set tempo
stop
Author
Difficulty
-------------------------------------------------------------------------------
                             Vinternoll2 - Kent 
-------------------------------------------------------------------------------
Tabbed by: Mamurra

Tuning: E A D G (Standard)

I wrote down the whole song as it is, but at the end I included the order of the parts
just in case you don't want to scroll that much. I'm sure it's like 99,9% perfect. Have fun!


Intro
(0:00-0:14)

Drums and a few bars of guitar, then the bass comes in with the intro:

Intro with bass
(0:14-0:24)

G|-1/4-4-4-4-4-4---|-----------------|-----------------|-------------1/--|
D|---------------2-|--4-4-4-4-4-4-2--|-----------------|-----------------|
A|-----------------|-----------------|-4-4-4-4-4-4-4-4-|-4-4-4-4-4-4-----|
E|-----------------|-----------------|-----------------|-----------------|

G|---4-4-4-4-4-4---|-----------------|
D|---------------2-|--4-4-4-4-4-4-2--|
A|-----------------|-----------------|
E|-----------------|-----------------|

Part 1
(0:25-0:38)

G|-----------------|-----------------|-----------------|--------------------|
D|-----------------|-2-2-2-2-2-2-2-2-|-----------------|--------------------|
A|-4-4-4-4-4-4-4-4-|-----------------|-0-0-0-0-0-0-0-0-|-4-4-4-4-4-4-4-4----|
E|-----------------|-----------------|-----------------|--------------------|

G|-----------------|-----------------|-----------------|--------------------|
D|-----------------|-2-2-2-2-2-2-2-2-|-----------------|--------------------|
A|-4-4-4-4-4-4-4-4-|-----------------|-0-0-0-0-0-0-0-0-|-4-4-4-4-4-4-2/4----|
E|-----------------|-----------------|-----------------|--------------------|

Part 2
(0:38-1:06)     Och dom säger att...

G|---------------|---------------|---------------|--------------------|
D|---------------|-2-2--2-2-2--2-|---------------|--------------------|
A|-4-4--4-4-4--4-|---------------|-0-0--0-0-0--0-|-4-4--4-4-4--4------|
E|---------------|---------------|---------------|--------------------|


G|---------------|---------------|---------------|--------------------|
D|-2-2--2-2-2--2-|---------------|---------------|--------------------|
A|---------------|-2-2--2-2-2--2-|-4-4--4-4-4--4-|-4-4--4-4-4-7\4-----|
E|---------------|---------------|---------------|--------------------|

G|------------------|------------------|------------------|--------------------|
D|------------------|-2-2--2-2-2-2-2-2-|------------------|--------------------|
A|-4-4--4-4-4-4-4-4-|------------------|-0-0--0-0-0-0-0-0-|-4-4--4-4-4-4-4-4---|
E|------------------|------------------|------------------|--------------------|

G|------------------|------------------|------------------|--------------------|
D|------------------|------------------|------------------|--------------------|
A|-2-2--2-2-2-2-2-2-|-0-0--0-0-0-0-0-0-|-4-4--4-4-4-4-4-4-|-4-4-4-4-4-4-7\0----|
E|------------------|------------------|------------------|--------------------|

Part 3
(1:07-1:30)      Du är min hjälte...

G|-----------------|-----------------|-----------------|--------------------|
D|-----------------|-----------------|-----------------|--------------------|
A|-0-0-0-0-0-0-0-0-|-0-0-0-0-0-0-2-2-|-----------------|-2-2-2-2-2-2-2-2----|
E|-----------------|-----------------|-0-0-0-0-0-0-0-0-|--------------------|

G|-----------------|-----------------|-----------------|--------------------|
D|-----------------|-----------------|-----------------|--------------------|
A|-0-0-0-0-0-0-0-0-|-0-0-0-0-0-0-2-2-|-4-4-4-4-4-4-4-4-|-2-2-2-2-2-2-2-2----|
E|-----------------|-----------------|-----------------|--------------------|

G|-----------------|-----------------|-----------------|--------------------|
D|-----------------|-----------------|-2-2-2-2-2-2-2-2-|--------------------|
A|-0-0-0-0-0-0-0-0-|-0-0-0-0-0-0-2-2-|-----------------|-2-2-2-2-2-2-2-2----|
E|-----------------|-----------------|-----------------|--------------------|

G|-----------------|-----------------|
D|-4-4-4-4-4-4-4-4-|-7-7-7-7-7-7-9\\-|
A|-----------------|-----------------|
E|-----------------|-----------------|

Part 1a
(1:31-1:48)

G|-----------------|-----------------|-----------------|--------------------|
D|-----------------|-2-2-2-2-2-2-2-2-|-----------------|--------------------|
A|-4-4-4-4-4-4-4-4-|-----------------|-0-0-0-0-0-0-0-0-|-4-4-4-4-4-4-4-4----|
E|-----------------|-----------------|-----------------|--------------------|

G|-----------------|-----------------|-----------------|--------------------|
D|-----------------|-2-2-2-2-2-2-2-2-|-----------------|-2-2-2-2-2-2-2-2----|
A|-4-4-4-4-4-4-4-4-|-----------------|-0-0-0-0-0-0-0-0-|--------------------|
E|-----------------|-----------------|-----------------|--------------------|

G|-----------------|-----------------|
D|-----------------|-----------------|
A|-----------------|-------------2-2-|
E|-4-4-4-4-4-4-4-4-|-4-4-4-4-4-4-----|

Part 2
(1:48-2:15)      Och du känner att...

G|---------------|---------------|---------------|--------------------|
D|---------------|-2-2--2-2-2--2-|---------------|--------------------|
A|-4-4--4-4-4--4-|---------------|-0-0--0-0-0--0-|-4-4--4-4-4--4------|
E|---------------|---------------|---------------|--------------------|


G|---------------|---------------|---------------|--------------------|
D|-2-2--2-2-2--2-|---------------|---------------|--------------------|
A|---------------|-2-2--2-2-2--2-|-4-4--4-4-4--4-|-4-4--4-4-4-7\4-----|
E|---------------|---------------|---------------|--------------------|

G|------------------|------------------|------------------|--------------------|
D|------------------|-2-2--2-2-2-2-2-2-|------------------|--------------------|
A|-4-4--4-4-4-4-4-4-|------------------|-0-0--0-0-0-0-0-0-|-4-4--4-4-4-4-4-4---|
E|------------------|------------------|------------------|--------------------|

G|------------------|------------------|------------------|--------------------|
D|------------------|------------------|------------------|--------------------|
A|-2-2--2-2-2-2-2-2-|-0-0--0-0-0-0-0-0-|-4-4--4-4-4-4-4-4-|-4-4-4-4-4-4-7\0----|
E|------------------|------------------|------------------|--------------------|

Part 3      Du är min hjälte...
(2:16-2:39)

G|-----------------|-----------------|-----------------|--------------------|
D|-----------------|-----------------|-----------------|--------------------|
A|-0-0-0-0-0-0-0-0-|-0-0-0-0-0-0-2-2-|-----------------|-2-2-2-2-2-2-2-2----|
E|-----------------|-----------------|-0-0-0-0-0-0-0-0-|--------------------|

G|-----------------|-----------------|-----------------|--------------------|
D|-----------------|-----------------|-----------------|--------------------|
A|-0-0-0-0-0-0-0-0-|-0-0-0-0-0-0-2-2-|-4-4-4-4-4-4-4-4-|-2-2-2-2-2-2-2-2----|
E|-----------------|-----------------|-----------------|--------------------|

G|-----------------|-----------------|-----------------|--------------------|
D|-----------------|-----------------|-2-2-2-2-2-2-2-2-|--------------------|
A|-0-0-0-0-0-0-0-0-|-0-0-0-0-0-0-2-2-|-----------------|-2-2-2-2-2-2-2-2----|
E|-----------------|-----------------|-----------------|--------------------|

G|-----------------|-----------------|
D|-4-4-4-4-4-4-4-4-|-7-7-7-7-7-7-9\\-|
A|-----------------|-----------------|
E|-----------------|-----------------|

Break
(2:40-2:46)

G|-----------------|-----------------|-----------------|--------------------|
D|-----------------|-----------------|-----------------|--------------------|
A|-----------------|-----------------|-----------------|-----------------7\-|
E|-----------------|-----------------|-----------------|--------------------|

Part 4
(2:47-2:54)

G|-----------------|-----------------|-----------------|--------------------|
D|-----------------|-----------------|-----------------|--------------------|
A|-4-4-4-4-4-4-4-4-|-2-2-2-2-2-2-2-2-|-0-0-0-0-0-0-0-0-|-2-2-2-2-2-2-2-2----|
E|-----------------|-----------------|-----------------|--------------------|

Part 3a       Du är min hjälte...
(2:54-3:18)

G|-----------------|-----------------|-----------------|--------------------|
D|-----------------|-----------------|-----------------|--------------------|
A|-0-0-0-0-0-0-0-0-|-0-0-0-0-0-0-2-2-|-----------------|-2-2-2-2-2-2-2-2----|
E|-----------------|-----------------|-0-0-0-0-0-0-0-0-|--------------------|

G|-----------------|-----------------|-----------------|--------------------|
D|-----------------|-----------------|-----------------|--------------------|
A|-0-0-0-0-0-0-0-0-|-0-0-0-0-0-0-2-2-|-4-4-4-4-4-4-4-4-|-2-2-2-2-2-2-2-2----|
E|-----------------|-----------------|-----------------|--------------------|

G|-----------------|-----------------|-----------------|--------------------|
D|-----------------|-----------------|-2-2-2-2-2-2-2-2-|--------------------|
A|-0-0-0-0-0-0-0-0-|-0-0-0-0-0-0-2-2-|-----------------|-2-2-2-2-2-2-2-2----|
E|-----------------|-----------------|-----------------|--------------------|

G|-----------------|-----------------|
D|-----------------|-----------------|
A|-----------------|-----------------|
E|-2-2-2-2-2-2-2-2-|-5-5-5-5-5-5-5-5-|

Part 5   
(3:18-3:42)

Either you play the 5's on the E string or play an open A instead of them,
it's totally up to you, but I prefer playing A's on the E string.

G|-----------------|-----------------|-----------------|--------------------|
D|-----------------|-----------------|-----------------|--------------------|
A|-----------------|---------2-2-2-2-|-4-4-4-4-4-4-4-4-|-2-2-2-2-2-2-2-2----|
E|-5-5-5-5-5-5-5-5-|-5-5-5-5---------|-----------------|--------------------|

G|-----------------|-----------------|-----------------|--------------------|
D|-----------------|-----------------|-----------------|--------------------|
A|-----------------|---------2-2-2-2-|-4-4-4-4-4-4-4-4-|-2-2-2-2-2-2-2-2----|
E|-5-5-5-5-5-5-5-5-|-5-5-5-5---------|-----------------|--------------------|

G|-----------------|-----------------|-----------------|--------------------|
D|-----------------|-----------------|-----------------|--------------------|
A|-----------------|---------2-2-2-2-|-4-4-4-4-4-4-4-4-|-2-2-2-2-2-2-2-2----|
E|-5-5-5-5-5-5-5-5-|-5-5-5-5---------|-----------------|--------------------|

G|-----------------|-----------------|
D|-----------------|-----------------|
A|-----------------|-----------------|
E|-2-2-2-2-2-2-2-2-|-5-5-5-5-5-5-7-7-|

Outro
(3:42-4:22)

G|-----------------|-------------1/--|-4-4-4-4-4-4-----|--------------------|
D|-----------------|-----------------|-------------2---|-4-4-4-4-4-4-2------|
A|-4-4-4-4-4-4-4-4-|-4-4-4-4-4-4-----|-----------------|--------------------|
E|-----------------|-----------------|-----------------|--------------------|

G|-----------------|-------------1/--|-4-4-4-4-4-4-----|--------------------|
D|-----------------|-----------------|-------------2---|-4-4-4-4-4-4-2------|
A|-4-4-4-4-4-4-4-4-|-4-4-4-4-4-4-----|-----------------|--------------------|
E|-----------------|-----------------|-----------------|--------------------|

G|-----------------|-------------1/--|-4-4-4-4-4-4-----|--------------------|
D|-----------------|-----------------|-------------2---|-4-4-4-4-4-4-2------|
A|-4-4-4-4-4-4-4-4-|-4-4-4-4-4-4-----|-----------------|--------------------|
E|-----------------|-----------------|-----------------|--------------------|

G|-----------------|-------------1/--|-4-4-4-4-4-4-----|--------------------|
D|-----------------|-----------------|-------------2---|-4-4-4-4-4-4-2------|
A|-4-4-4-4-4-4-4-4-|-4-4-4-4-4-4-----|-----------------|--------------------|
E|-----------------|-----------------|-----------------|--------------------|

G|-----------------|-----------------|-----------------|--------------------|
D|-----------------|-----------------|-----------------|--------------------|
A|-4-(ring out)----|-----------------|-----------------|--------------------|
E|-----------------|-----------------|-----------------|--------------------|

Ja? Bååå :)

Intro
Part 1
Part 2
Part 3
Part 1a
Part 2
Part 3
Break
Part 4
Part 3a
Part 5
Outro




| /  slide up
| \  slide down
| h  hammer-on
| p  pull-off
| ~  vibrato
| +  harmonic
| x  Mute note
===============================================================================

            
            
Suggest correction
Creating personal tab
Creating personal tab
You can edit any tab online and save it as your Personal.

You can edit, replace or remove any tab part or add personal notes – all changes will be seen only by you.

Personal tabs can be accessed anytime from any device, even offline.
Learn more »
comments
print report bad tab
1 comment total.
0 reply
phdrowe 10 Feb 14, 2014 04:07 PM

Nicely done. Sounds just about right.

guest
You may want to rate the tab now too:
select rating
Wanna post a correction for this tab? Suggest correction