Oops, an error
Loading. Please wait.

Vinternoll2 chords

version 1
version 1

Whole song

Interactive

by Kent
10,590 views 63 this week
2 commentsread comments
1 2 3 4 5
x 7
add to favorites
×
Save as Personal and add changes to this tab that will be seen only by you. Learn more ›
×
You can save this tab as Personal to edit and correct it or add notes. All changes will be seen only by you. Learn more »
launch autoscroll
font size
0
reset
transpose
0
reset
display chords
guitar tuner
backing track
0:00
0:00
edit
Autoscroll
slow
fast
+/-
esc
set tempo
stop
Strumming
There is no strumming pattern for this song yet. and get +5 IQ
Kent - VinterNoll2
Tabbed By: Rasmus Halvarsson

Intro:
e|-----------------------|
B|-----------------------|
G|-----6---6---6---6-----|
D|-----------------------|
A|---4---4---4---4-------|
E|-----------------------|


Melodi: x3?
e|-9---9-7-9-----9---9-7-9----|-9---9-7-9--------9----9-7-9--|
B|-----------9-------------7--|------------9-----------------|
G|----------------------------|------------------------------|
D|----------------------------|------------------------------|
A|----------------------------|------------------------------|
E|----------------------------|------------------------------|


När öset börjar: 
C#m B A C#m
C#m B A C#m


e|---------------------------------------------------|
B|--5----5-4-5-4-----4----4-2-4-2-----2---2-0--------|
G|--------------------------------------------1------|
D|---------------------------------------------------|
A|---------------------------------------------------|
E|---------------------------------------------------|
x2

C#m               B               A                C#m
Och dom säger att stan har blivit tyst och ful och öde älskling.
E                         B                   C#m
Att det kommer att bli en lång kall vinter.
C#m                  B                A             C#m          B
Jag har lärt mig att saknaden är värst när nån har sovit som ett barn
           A             C#m
Genom en iskall vinter.

A                           E     B    A
Du är min hjälte för att du vågar vara rak.
A                          C#m     B       A
Du är min hjälte för att du är precis så svag som jag.
A                        E     B     A
Kom och hjälp mig jag behöver dig igen igen igen.


C#m                 B           A                C#m
Och du känner att staden är precis som staden alltid varit.
E               B                  C#m
I väntan på en lång kall vinter.
C#m               B              A            C#m        B
Och du säger att saknad kan man lära sig att leva med ibland.
            A            C#m
Genom en iskall vinter.


A                            E     B   A
Du är min hjälte för att du vågar vara rak.
A                          C#m    B        A
Du är min hjälte för att du är precis så svag som jag.
A                         E    B   A
Kom och hjälp mig jag behöver dig igen igen igen.

A                             E     B  A
Du är min hjälte för att du vågar vara rak.
A                          C#m     B       A
Du är min hjälte för att du är precis så svag som jag.
A                         E    B   A
Kom och hjälp mig jag behöver dig igen igen igen.

            
            
Suggest correction
Creating personal tab
Creating personal tab
You can edit any tab online and save it as your Personal.

You can edit, replace or remove any tab part or add personal notes – all changes will be seen only by you.

Personal tabs can be accessed anytime from any device, even offline.
Learn more »
comments
print report bad tab
2 comments total.
0 reply
Masterbasser36 651 Dec 15, 2008 08:22 PM

perfect but missing a part near the end

and this

E---------------------------------------------------|I
B--5----5-4-5-4-----4----4-2-4-2-----2---2-0--------|I
G--------------------------------------------1------|I
D---------------------------------------------------|I
A---------------------------------------------------|I
E---------------------------------------------------|I

should be

E-----------------------------------------------------|I
B--5----5-4-5-4-----4----4-2-4-2-----2---2-0----------|I
G--------------------------------------------2-1------|I
D-----------------------------------------------------|I
A-----------------------------------------------------|I
E-----------------------------------------------------|I

0 reply
whoisthisagain 122 Jan 04, 2009 09:38 AM

Thank you so much! Both of you.

guest
Wanna post a correction for this tab? Suggest correction