Oops, an error
Loading. Please wait.

Entre Les Lignes 1 Car Nous Sommes Le Monde Tab

1,429 views 6 this week
no commentswrite comment
1 2 3 4 5
please rate
add to favorites
launch autoscroll
font size
0
reset
how to read this tab
guitar tuner
Tab Pro tools
  • play this tab
  • loop segment
  • change instrument
  • show fretboard
  • metronome
×
Best way to learn
"Entre Les Lignes 1 Car Nous Sommes Le Monde"
Autoscroll
slow
fast
+/-
esc
set tempo
stop
Contributor
Difficulty
intermediate
-----------------------------------------------------------------------------
              Entre les Lignes #1 Car nous sommes le monde
                              -  -  -
                            Keny Arkana
-----------------------------------------------------------------------------


Hi, I did my best for this tab because a friend (dédicace sous-race !! =D)
want me to play this song from a great french rapper. 
I thought I could share this with you, so enjoy it !
I think this is 98% correct, with all variations, my hears seem OK.
I'll be back to write the outro (when Keny stops singing)
which is similar to the rest.


Tabbed by: Amdek
E-mail: axoutatis@hotmail.fr

Tuning: EADGBe

0:00
e|-------------------------------------------------------------------|
B|--------3-----3---------3-----0---------3-----3---------3-----0----|
G|------4-----4---0-----------0---0-----4-----4---0-----------0---0--|
D|----4-----------------0-------------4-----------------0------------|
A|--2-----------------2-------------2-----------------2--------------|
E|------------------3-------------------------------3----------------|

                                                             0:15
e|-------------------------------------------------------------------|
B|--------3-----3---------3-----0---------2-----2---------0-------0--|
G|------4-----4---0-----------0---0-----------2---2------------------|
D|----4-----------------0---------------4---------------4-------0----|
A|--2-----------------2---------------4---------------4-------2------|
E|------------------3---------------2---------------2-------3--------|


e|--------0-------------------------------0--------------------------|
B|--------3-----3---------3-----0---------3-----3---------3-----0----|
G|------4-----4---0-----------0---0-----4-----4---0-----------0---0--|
D|----4-----------------0-------------4-----------------0------------|
A|--2-----------------2-------------2-----------------2--------------|
E|------------------3-------------------------------3----------------|

                                                    0:30
e|-------------------------------------------------------------------|
B|--------3-----3---------3-----0---------2-----2-------2---3p2------|
G|------4-----4---0-----------0---0-----------2---2-------0-----2-4--|
D|----4-----------------0---------------4----------------------------|
A|--2-----------------2---------------4---------------4-----0--------|
E|------------------3---------------2---------------2----------------|


e|----2-----2-------------------------2-----2------------------------|
B|------3-----3---2-------2-----2-------3-----3---2-------2-----2----|
G|--------4-----4-------------2---2-------4-----4-------------2---2--|
D|----------------------4-------------------------------4------------|
A|--2-----------------4-------------2-----------------4--------------|
E|------------------2-------------------------------2----------------|

                                    0:45
e|----2-----2--------------------------------------------------------|
B|------3-----3---2-------2-----2---------3-----3-------3-------2----|
G|--------4-----4-------------2---0-----------0---0-------0----------|
D|----------------------4---------------0-------------------------4--|
A|--2-----------------4---------------2---------------2-------4------|
E|------------------2---------------3---------------3-------2--------|

          h.p                             h.p
e|-------------------------------------------------------------------|
B|--------232-------------3-----2-0-------232-------------3-----2-0--|
G|------4-----4---0-----------0---------4-----4---2-----------0------|
D|----4---------4-------0-------------4---------4-4-----0------------|
A|--2-----------------2-------------2-----------------2--------------|
E|------------------3-------------------------------3----------------|

          h.p            1:00
e|-------------------------------------------------------------------|
B|--------232-------------3-----2-2-------2-----2---------2-------0--|
G|------4-----4---0-----------0---------------2---2-------4-------0--|
D|----4---------4-------0---------------4---------------4-------0----|
A|--2-----------------2---------------4---------------4-------2------|
E|-----------------3---------------2---------------2-------3---------|

          h.p                             h.p
e|--------2-----2----------------------------------------------------|
B|--------232---2---------3-------0-------232-------------3-----2-0--|
G|------4-----4---4-----------0-0-------4-----4---0-----------0------|
D|----4-----------------0---0---------4---------4-------0------------|
A|--2-----------------2-------------2-----------------2--------------|
E|------------------3-------------------------------3----------------|

          h.p         1:15
e|--------2-----2----------------------------------------------------|
B|--------232---2-2-------0-----2-0-------2-----2-------2---3p2------|
G|------4-----4---4-------0---0---------------2---2-------0-----2-4--|
D|----4-----------------0---------------4----------------------------|
A|--2-----------------2---------------4---------------4-----0--------|
E|------------------3---------------2---------------2----------------|

                                                          h.p
e|----2-----2-------------------------2-----2------------------------|
B|------3-----3---2-------2-----2-------3-----3---3-------232--------|
G|--------4-----4-------------2---2-------4-----4-------2-----2------|
D|----------------------4-----------------------------2---------2-4--|
A|--2-----------------4-------------2---------------0----------------|
E|------------------2------------------------------------------------|

   1:30
e|----2-----2-----2---------------------------------10----------9------7--|
B|------3-----3-----------2-----2---------3-----3------10-----------10----|
G|--------4-----4-------------2---0-----------0---0-------11--------------|
D|----------------------4---------------0--------------------12-7---7-----|
A|--2-----------------4---------------2---------------------------7----7--|
E|------------------2---------------3---------------10--------------------|

                                        1:45              h.p
e|----2-----2-------------------------2-----2------------------------|
B|------3-----3---2-------2-----2-------3-----3---0-------232--------|
G|--------4-----4-------------2---2-------4-----4-------2-----2---4--|
D|----------------------4-----------------------------2---------2----|
A|--2-----------------4-------------2---------------0----------------|
E|------------------2------------------------------------------------|


e|----2-----2------------------------------------------------------|
B|------3-----3---0-------2-----2---------3-----3------------------|
G|--------4-----4-------------2---0-----------0---0-------0--------|
D|----------------------4---------------0---------------0-------4--|
A|--2-----------------4---------------2---------------2-------4----|
E|------------------2---------------3---------------3-------2------|

          h.p           2:00              h.p
e|--------2-------------------------------2--------------------------|
B|--------232-----2-------3-----2-0-------232-----2-------3-----2-0--|
G|------4-----4---4-----------0---------4-----4---4-----------0------|
D|----4---------4-------0-------------4---------4-------0------------|
A|--2-----------------2-------------2-----------------2--------------|
E|------------------3-------------------------------3----------------|

          h.p
e|--------2------------------------------------------------------------|
B|--------232-----2-------------2-0---------2-----2-------2------------|
G|------4-----4---4-------0---0-----------------2---2-------0-----2-4--|
D|----4---------4-------0-----------------4---------------------2------|
A|--2-----------------2-----------------4---------------4-----0--------|
E|------------------3-----------------2---------------2----------------|

  2:15    h.p                             h.p
e|--------2-------------------------------2--------------------------|
B|--------232-----2-------3-----2-0-------232-----2-------3-----2-0--|
G|------4-----4---4-------0---0---------4-----4---4-------0---0------|
D|----4---------4-------0-------------4---------4-------0------------|
A|--2-----------------2-------------2-----------------2--------------|
E|------------------3-------------------------------3----------------|

          h.p                                                   2:30
e|--------2---------------------------------------------------------------|
B|--------232-----2-------3-----2-0------------2-----2---------0-3p2------|
G|------4-----4---4-------0---0-0-0----------------2---2-------------2-4--|
D|----4---------4-------0--------------------4-------4-------4------------|
A|--2-----------------2--------------------4---------------4-----0--------|
E|------------------3--------------------2---------------2----------------|

...Outro coming soon...

************************************

| /   slide up
| \   slide down
| h   hammer-on
| p   pull-off
| ~   vibrato
| +   harmonic
| x   Mute note
| b   Bend
| pb  Pre-bend
| br  Bend release
| pbr Pre-bend release
| brb Bend release bend

************************************
comments
We did not receive enough feedback on this tab! Please rate:
print report bad tab
1 2 3 4 5
I want to post or [tab]
guest
You may want to rate the tab now too:
select rating
Please do not post tabs as comments. Select "correction" instead!