Oops, an error
Loading. Please wait.

Entre Les Lignes Cloue Au Sol tab

5,624 views 9 this week
no commentswrite comment
1 2 3 4 5
3 more votes to show rating
add to favorites
×
Save as Personal and add changes to this tab that will be seen only by you. Learn more ›
×
You can save this tab as Personal to edit and correct it or add notes. All changes will be seen only by you. Learn more »
launch autoscroll
font size
0
reset
how to read this tab
guitar tuner
edit
Autoscroll
slow
fast
+/-
esc
set tempo
stop
Difficulty
intermediate
Accords         | Variations
Em    (022000)  | Em7   (022030)
C     (X32010)  | Cadd9 (X32030)
Am    (X02210)  | Asus4 (X02230)
Dsus2 (XX0230)  |


  -- Introduction --

Pour une guitare electrique ou acoustique a pan coupe :

e-----------------------|
B-------12-13-15-13-12--|
G-12-14-----------------|
D-----------------------|
A-----------------------|
E-----------------------|

Si vous jouez tout seul, et tenez a faire cette petite introduction,
il est judicieux de jouer l'harmonique pour la derniere note,
histoire qu'elle continue a sonner pendant que vous commencez l'arpege.

Pour les autres guitares, ou les frettes hautes sont moins accessibles :

e------7-8-10-8-7-------|
B-8-10------------------|
G-----------------------|
D-----------------------|
A-----------------------|
E-----------------------|

La guitare solo joue tout le long du morceau, sur la gamme de mi mineur (Em)
>> mi fa# sol la si do re (E F# G A B C D)
Mieux vaut improviser en suivant celui ou celle qui rap que reprendre tel quel.

  -- Arpeges --

J'ai mis des fragments de paroles au dessus pour que vous puissiez vous reperer
- Les pull off donnent souvent sur une note morte plutot que sur le si
- Lorsqu'il ne s'agit plus d'arpege, je n'ai mis que le nom de l'accord
- Lorsqu'il y a une *, cela signifie que la rythmique inclue la variation
>> Em* equivaut a la suite d'accord : Em Em7 Em

    Em                C                 Am                Dsus2
e||-----------------|-----------------|-----------------|-0-----0---------|
B||-------0-----0---|-1-----1-----1---|-1-----1-----1---|---3-----3---3p0-|
G||-----0---0-----0-|---0-----0-----0-|---2-----2-----2-|-----2-----2-----|
D||---2-------2-----|-----2-----2-----|-----2-----2-----|-0---------------|
A||-----------------|-3---------------|-0---------------|-----------------|
E||-0---------------|-----------------|-----------------|-----------------|

                                                                        Les ailes

    Em    Em7   Em    C     Cadd9 C     Am    Asus4 Am    Dsus2
e||-----------------|-----------------|-----------------|-0-----0---------|
B||-0-----3-----0---|-1-----3-----1---|-1-----3-----1---|---3-----3---3p0-|
G||---0-----0-----0-|---0-----0-----0-|---2-----2-----2-|-----2-----2-----|
D||-----2-----2-----|-----2-----2-----|-----2-----2-----|-0---------------|
A||-----------------|-3---------------|-0---------------|-----------------|
E||-0---------------|-----------------|-----------------|-----------------|

brulees                                                               comme l'art

    Em                C                 Am                Dsus2
e||-----------------|-----------------|-----------------|-0-----0---------|
B||-0-----0-----0---|-1-----1-----1---|-1-----1-----1---|---3-----3---3p0-|
G||---0-----0-----0-|---0-----0-----0-|---2-----2-----2-|-----2-----2-----|
D||-----2-----2-----|-----2-----2-----|-----2-----2-----|-0---------------|
A||-----------------|-3---------------|-0---------------|-----------------|
E||-0---------------|-----------------|-----------------|-----------------|

                                                                      sagesse

    Em    Em7   Em    C     Cadd9 C     Am    Asus4 Am    Dsus2
e||-----------------|-----------------|-----------------|-0-----0---------|
B||-0-----3-----0---|-1-----3-----1---|-1-----3-----1---|---3-----3---3p0-|
G||---0-----0-----0-|---0-----0-----0-|---2-----2-----2-|-----2-----2-----|
D||-----2-----2-----|-----2-----2-----|-----2-----2-----|-0---------------|
A||-----------------|-3---------------|-0---------------|-----------------|
E||-0---------------|-----------------|-----------------|-----------------|

Reflexion pesante                                                       Jme

    Em                C                 Am                Dsus2
e||-----------------|-----------------|-----------------|-0-----0---------|
B||-0-----0-----0---|-1-----1-----1---|-1-----1-----1---|---3-----3---3p0-|
G||---0-----0-----0-|---0-----0-----0-|---2-----2-----2-|-----2-----2-----|
D||-----2-----2-----|-----2-----2-----|-----2-----2-----|-0---------------|
A||-----------------|-3---------------|-0---------------|-----------------|
E||-0---------------|-----------------|-----------------|-----------------|

   noie

    Em                C                 Am                Dsus2
e||------0----------|-----------------|-----------------|-0-----0---------|
B||-----0-----------|-1-----1-----1---|-1-----1-----1---|---3-----3---3p0-|
G||----0------------|---0-----0-----0-|---2-----2-----2-|-----2-----2-----|
D||---2-------------|-----2-----2-----|-----2-----2-----|-0---------------|
A||--2--------------|-3---------------|-0---------------|-----------------|
E||-0---------------|-----------------|-----------------|-----------------|

O Liberte                                                             limite ou

    Em    Em7   Em    C     Cadd9 C     Am    Asus4 Am    Dsus2
e||-----------------|-----------------|-----------------|-0-----0---------|
B||-0-----3-----0---|-1-----3-----1---|-1-----3-----1---|---3-----3---3p0-|
G||---0-----0-----0-|---0-----0-----0-|---2-----2-----2-|-----2-----2-----|
D||-----2-----2-----|-----2-----2-----|-----2-----2-----|-0---------------|
A||-----------------|-3---------------|-0---------------|-----------------|
E||-0---------------|-----------------|-----------------|-----------------|

A (X0221X)                              Dsus2
la verite s'cache en nous clairvoyance, intuition,

mais avons-nous idee de tout c'qui s'cache en nous ? Nan,
A (X0221X)                                     Dsus2
c'est rires contre larmes, l'ego contre l'ame, et a plus haute echelle,

j'dirais l'illuminati contre l'homme.



Epoque curelle

    Em                C                 Am                Dsus2
e||-----------------|-----------------|-----------------|-0-----0---------|
B||-------0-----0---|-1-----1-----1---|-1-----1-----1---|---3-----3---3p0-|
G||-----0---0-----0-|---0-----0-----0-|---2-----2-----2-|-----2-----2-----|
D||---2-------2-----|-----2-----2-----|-----2-----2-----|-0---------------|
A||-----------------|-3---------------|-0---------------|-----------------|
E||-0---------------|-----------------|-----------------|-----------------|

                                                              et nos prenoms

    Em    Em7   Em    C     Cadd9 C     Am    Asus4 Am    Dsus2
e||-----------------|-----------------|-----------------|-0------0--0--0--|
B||-0-----3-----0---|-1-----3-----1---|-1-----3-----1---|---3----3--3--3--|
G||---0-----0-----0-|---0-----0-----0-|---2-----2-----2-|-----2--2--2--2--|
D||-----2-----2-----|-----2-----2-----|-----2-----2-----|-0---------------|
A||-----------------|-3---------------|-0---------------|-----------------|
E||-0---------------|-----------------|-----------------|-----------------|


Em                                                       C
Tout va de plus en plus vite, car pour eux le temps c'est d'l'argent

alors on oublie de vivre, c'est navrant,
   Am                                                            Dsus2
En nous se cree un vide, que rien n'comblera, car l'ombre s'est empare d'notre monde
                                                Em
Mais on n'croit qu'c'qu'on voit ou c'qu'on veut bien nous laisser voir,
                            C
Donc ouais on est aveugles, ca m'fait mal au coeur, mais regarde, meme nos ames buggent !
  Am                                                           Dsus2
Au fond d'nous c'est tourments, car dehors c'est tourments, soumis a notre sort
                                  Em*
on oublie qu'la vie est mouvement ;
                                       C*
Que la force issue d'un ideal ou d'une volonte, transcende tous les schemas etablis !
       Am*                                                            Dsus2
Qu'les barrieres sont dans nos cranes, qu'on est seuls a pouvoir, les virer, s'liberer
                                   Em*
en laissant notre coeur s'emouvoir.
                                                  C*
Trop portes sur l'exterieur et a force de vouloir etre comme tout le monde
                                        Am*
peu sont quelqu'un. En fin d'compte, on d'vient c'qu'on nous montre,
           Dsus2
au lieu d'etre c'qu'on est. Pourtant c'mode de vie fait mal mais on s'laisse cogner.


On subit                                                               au bonheur

     Em                C                 Am                Dsus2
e||-------0----------|-----------------|-----------------|-0-----0---------|
B||------0-----------|-1-----1-----1---|-1-----1-----1---|---3-----3---3p0-|
G||-----0------------|---0-----0-----0-|---2-----2-----2-|-----2-----2-----|
D||----2-------------|-----2-----2-----|-----2-----2-----|-0---------------|
A||---2--------------|-3---------------|-0---------------|-----------------|
E||--0---------------|-----------------|-----------------|-----------------|

Em                                                  C
   Car changer le monde commence par se changer soi-meme,
                                             Am
changer le monde commence par se changer soi-meme,
                                             Dsus2
changer le monde commence par se changer soi-meme !

Em                                                  C
   Car changer le monde commence par se changer soi-meme,
                                             Am
changer le monde commence par se changer soi-meme,
                                             Dsus2
changer le monde commence par se changer soi-meme !

Em C Am Dsus2 Em C Am Dsus2

     Em                C                 Am                Dsus2
e||-------0----------|-----------------|-----------------|-0-----0---------|
B||------0-----------|-1-----1-----1---|-1-----1-----1---|---3-----3---3p0-|
G||-----0------------|---0-----0-----0-|---2-----2-----2-|-----2-----2-----|
D||----2-------------|-----2-----2-----|-----2-----2-----|-0---------------|
A||---2--------------|-3---------------|-0---------------|-----------------|
E||--0---------------|-----------------|-----------------|-----------------|

    Em    Em7   Em    C     Cadd9 C     Am    Asus4 Am    Dsus2             Em
e||-----------------|-----------------|-----------------|-0-----0---------|------0-|
B||-0-----3-----0---|-1-----3-----1---|-1-----3-----1---|---3-----3---3-0-|-----0--|
G||---0-----0-----0-|---0-----0-----0-|---2-----2-----2-|-----2-----2-----|----0---|
D||-----2-----2-----|-----2-----2-----|-----2-----2-----|-0---------------|---2----|
A||-----------------|-3---------------|-0---------------|-----------------|--2-----|
E||-0---------------|-----------------|-----------------|-----------------|-0------|

Bon courage !

            
            
Suggest correction
Creating personal tab
Creating personal tab
You can edit any tab online and save it as your Personal.

You can edit, replace or remove any tab part or add personal notes – all changes will be seen only by you.

Personal tabs can be accessed anytime from any device, even offline.
Learn more »
Give kudos to tab author, rate the tab!
1 2 3 4 5
comments
print report bad tab
guest
Wanna post a correction for this tab? Suggest correction