Oops, an error
Loading. Please wait.

Walking On Air Tab

version 2
version 2

Whole song

4,304 views 1 this week
no commentswrite comment
1 2 3 4 5
please rate
add to favorites
launch autoscroll
font size
0
reset
how to read this tab
guitar tuner
Tab Pro tools
  • play this tab
  • loop segment
  • change instrument
  • show fretboard
  • metronome
Autoscroll
slow
fast
+/-
esc
set tempo
stop


Kerli – Walking On Air

this is my first tab, hope u enjoy =)
kosai

verse 1:

e|-----3--2-3--5--3--------------------------------------------------|
B|---3--------------4--3--4----1----------------4---3----------------|
G|--------------------------2-------2----0---------------------------|
D|-------------------------------4-----------------------------------|
A|-------------------------------------------------------------------|
E|-------------------------------------------------------------------|

There's a little creepy house in a little creepy place
Little creepy town in a little creepy world
Little creepy girl with her little creepy face
Saying funny things that you have never heard

Do you know what it's all about
Are you brave enough to figure out
Know that you could set your world on fire
If you are strong enough to leave your doubts


chorus:

e|---------------------------------------------------|
B|--3-------------4---------4---------4--------------|
G|--3-------------0---------0---------0--------------|
D|---------------------------------------------------|
A|--1-------------3---------3---------3--------------|
E|---------------------------------------------------|

Feel it
Breathe it
Believe it and you'll be walking on air
Go try
Go fly so high and you'll be walking on air
You feel this unless you kill this
Go on and you're forgiven
I knew that I could feel that
I feel like I am walking on air
Yeah

verse 2:

She has a little creepy cat and a little creepy bat
Little rocking chair and an old blue hat
That little creepy girl 
Oh, she loves to sing
She has a little gift
An amazing thing

With her little funny eyes of hazel
With her little funny old blue hat she will go and set the world on fire
No one ever thought she could do that

Chorus…

Bridge:

e|------------------------------------------------------------------|
B|------------------------------------------------------------------|
G|------------------------------------------------------------------|
D|-----7-----8--------7------8-------7-------8-------7--------8-----|
A|-----7-----8--------7------8-------7-------8-------7--------8-----|
E|------------------------------------------------------------------|

Flitter up and hover down
Be all around
Be all around

e|-------------------------------------------------------------------------------------|
B|-------------3-----------------------3---------------------3----------------------3--|
G|-----3---4------------------3----4----------------3----4-----------------3---4-------|
D|-------------------------------------------------------------------------------------|
A|-1---------------------3--------------------3-----------------------3----------------|
E|-------------------------------------------------------------------------------------|


                                        You know that I love you, go on

Chorus:
e|-------------------------------------------------------------------------------------|
B|-------------3-----------------------3---------------------3----------------------3--|
G|-----3---4------------------3----4----------------3----4-----------------3---4-------|
D|-------------------------------------------------------------------------------------|
A|-1---------------------3--------------------3-----------------------3----------------|
E|-------------------------------------------------------------------------------------|

Feel it
Breathe it
Believe it and you'll be walking on air
Go try
Go fly so high and you'll be walking on air
You feel this unless you kill this
Go on and you're forgiven
I knew that I could feel that
I feel like I am walking on air

comments
We did not receive enough feedback on this tab! Please rate:
print report bad tab
1 2 3 4 5
I want to post or [tab]
guest
You may want to rate the tab now too:
select rating
Please do not post tabs as comments. Select "correction" instead!