Oops, an error
Loading. Please wait.

Zombie Nation Bass Tab

version 1
version 1

Whole song

Interactive

2,890 views 3 this week
3 commentsread comments
1 2 3 4 5
please rate
add to favorites
launch autoscroll
font size
0
reset
guitar tuner
Autoscroll
slow
fast
+/-
esc
set tempo
stop
Help us to improve Ultimate-Guitar.com Take our survey!
×
Author
Difficulty
novice
Band: Kernkraft 400 [DJ Gius Remix]
Song: Zombie Nation
Tabbed by: Lord Matt

Well there's not a bass instrument in the song, but there is some sort of bass riff.

Standard Tuning

Verses:

G|---------------------------------|
D|---8---8---8---8---8---8---8---8-| 
A|---------------------------------|
E|-6---6---6---6---6---6---6---6---|

Chorus:

G|------------------------------------------------------------|
D|---8---8---8---8---8---8---8---8----12----12----12----14----|
A|------------------------------------------------------------|
E|-6---6---6---6---6---6---6---6---10----10----10----12----12-|

G|-----------------|
D|---8---8---8---8-|
A|-----------------|
E|-6---6---6---6---|


If you feel like playing the main riff then:

G|-----------------------------------------|
D|-------2------------2-3-2------------2---|
A|-0-2-3--------0-2-3-------3-5-----3----0-|
E|-----------------------------------------|


Suggest correction
Give kudos to tab author, rate the tab!
1 2 3 4 5
comments
print report bad tab
3 comments total.
+1 reply
drummerb 10 wrote on May 14 2008, 03:20 pm

Your Shit


nice tab btw

+1 reply
drummerb 10 wrote on July 1 2008, 02:14 pm

this tab is wrong


IM FUCKIN WITH YA MATE.

its prtety right, although it uses the Q string on the chorus

+1 reply
drummerb 10 wrote on July 1 2008, 02:18 pm

Nah mate, my ****in brother said that shit, dont woryr hes on the wheel now, he wont be comin off for a ****in long time. also i put cher on repete on full volume (the 'i got you babe' song)

hes gonna ****in die.

this tab is over 100% right, only way to improve it is to do some crazy solo in the middle

guest
You may want to rate the tab now too:
select rating
Wanna post a correction for this tab? Suggest correction