Oops, an error
Loading. Please wait.

Zombie Nation Bass Tab

version 2
version 2

Whole song

Interactive

478 views 1 this week
no commentswrite comment
1 2 3 4 5
please rate
add to favorites
launch autoscroll
font size
0
reset
guitar tuner
Autoscroll
slow
fast
+/-
esc
set tempo
stop
Help us to improve Ultimate-Guitar.com Take our survey!
×
Difficulty
novice
G|-----------------3------------------------------3----4----3---------------|
D|--0----3----5--------0----------0----3----5-------------------3-----5-----|
A|--------------------------------------------------------------------------|
E|--------------------------------------------------------------------------|

G|-------3------------------------------------------------------------------|
D|---3-------0--------------------------------------------------------------|
A|--------------------------------------------------------------------------|
E|--------------------------------------------------------------------------|

G|-----------------3------------------------------3----4----3---------------|
D|--0----3----5--------0-0-0-0-------0----3----5-------------------3-----5--|
A|--------------------------------------------------------------------------|
E|--------------------------------------------------------------------------|

G|-------3------------------------------------------------------------------|
D|---3-------0-0-0-0--------------------------------------------------------|
A|--------------------------------------------------------------------------|
E|--------------------------------------------------------------------------|

First tab, pretty simple but you'll have to listen to the song to get the rythm right.

ta
Suggest correction
Give kudos to tab author, rate the tab!
1 2 3 4 5
comments
print report bad tab
guest
You may want to rate the tab now too:
select rating
Please do not post tabs as comments. Select "correction" instead!