Oops, an error
Loading. Please wait.

Flamingo tab

1,834 views 90 this week
no commentswrite comment
1 2 3 4 5
1 last vote to show rating
add to favorites
×
Save as Personal and add changes to this tab that will be seen only by you. Learn more ›
×
You can save this tab as Personal to edit and correct it or add notes. All changes will be seen only by you. Learn more »
launch autoscroll
font size
0
reset
how to read this tab
guitar tuner
edit
Autoscroll
slow
fast
+/-
esc
set tempo
stop
Author
Difficulty
Obviously this isn't played on a guitar, but here is the tab anyway.

This bassline repeats throughout pretty much the whole song:

G|--------------------------------------------------|
D|--------------------------------------------------|
A|--------------------------------------------------| 
E|-4-4--4-4--3-4-4--4-4--6\-3-3--3-3--10-1--1--1--1-|

That's a 1-0 played in quick succession, not a 10.

e|-------------------------------------------------------------------------------------------------------|
B|----------6--8-6-------6----------------6--8-6---------------------------------------------------------|
G|-----5-8---------8--5-----8--------5-8---------8-7BD-------5---5-----------8-----8---8-8---8-----------|
D|-6-8-------------------------5-6-8-------------------8--5----5---8-------6-----6---------------8---5-8-|
A|--------------------------------------------------------------------56-8-----8-----8-----8---8---8-----|
E|-------------------------------------------------------------------------------------------------------|

e|---------------------------------------------------------------------------------------|
B|----------6--8-6-------6----------------6--8-6-----------------------------------------|
G|-----5-8---------8--5-----8--------5-8---------8-7BD-------5---5-----------8---5--7--8-|
D|-6-8-------------------------5-6-8-------------------8--5----5---8-------6-------------|
A|--------------------------------------------------------------------56-8-----8---------|
E|---------------------------------------------------------------------------------------|

Just bass x2...

e|-3--4--4--4----4--4--4--6--3--3--3---3-4-3---------------|
B|-------------------------------------------6--4--4--4----|
G|---------------------------------------------------------|
D|-5--6--6--6----6--6--6-----5--5--5-----------------------| x2
A|----------------------------------------------6--6--6----|
E|---------------------------------------------------------|

e|--------------------------33---33------4--4--4--4-|
B|--------------------------33---33------4--4--4--4-|
G|--------------------------------------------------|
D|--- bass -----------------55---55------6--6--6--6-|
A|--------------------------------------------------|
E|--------------------------------------------------|

e|-4-4--4-4----4-4--4-4-----33---33------4--4--4--4-------|
B|-4-4--4-4----4-4--4-4-----33---33------4--4--4--4-------|
G|------------------------------------------------------3-|
D|-6-6--6-6----6-6--6-6-----55---55------6--6--6--6-------|
A|--------------------------------------------------------|
E|--------------------------------------------------------|

----------------------------------------------------------------------------------------

e|-4-4--4-4----4-4--4-4-----33---33------4--4--4-|
B|-4-4--4-4----4-4--4-4-----33---33------4--4--4-|
G|-----------------------------------------------|
D|-6-6--6-6----6-6--6-6-----55---55------6--6--6-|
A|-----------------------------------------------|
E|-----------------------------------------------|

e|-----------------------------------------------------------------------------------------------------------|
B|-----------------------------------------------------------------------------------------------------------|
G|-/15--------------------------------------12---------------------------------------------------------------|
D|-------17-15-17------------------------13---------------------15-17-15----15-------------17-15----15-17----|
A|----------------13------15-13-13-13-15--------------------15-----------18-----18--15-----------18-------18-|
E|---------------------15---------------------------------------------------------------18-------------------|

e|-----------------------------------------------------------------------------------------------------------|
B|-----------------------------------------------------------------------------------------------------------|
G|-----------------------------------------------------------------------------------------------------------|
D|-------------------------------------------------------15-(Ring out)---------------------------------------|
A|-------------------------------------------------13-15-----------------------------------------------------|
E|----------------------------------------------15-----------------------------------------------------------|

Play together ^
-----------------------------------------------------------------------

e|--4--4--4----4--4--4--6--3--3--3---3-4-3---------------|
B|-----------------------------------------6--4--4--4----|
G|-------------------------------------------------------|
D|--6--6--6----6--6--6-----5--5--5-----------------------| 
A|--------------------------------------------6--6--6----|
E|-------------------------------------------------------|

e|-3--4--4--4----4--4--4--6--3--3--3---3-4-3---------------|
B|-------------------------------------------6--4--4--4----|
G|---------------------------------------------------------|
D|-5--6--6--6----6--6--6-----5--5--5-----------------------| 
A|----------------------------------------------6--6--6----|
E|---------------------------------------------------------|

-----------------------------------------------------------------

e|-3--4--4--4----4--4--4--6--3--3--3---3-4-3---------------|
B|-------------------------------------------6--4--4--4----|
G|---------------------------------------------------------|
D|-5--6--6--6----6--6--6-----5--5--5-----------------------| 
A|----------------------------------------------6--6--6----|
E|---------------------------------------------------------|

e|------------22-----------------------18-16-15------------|
B|---------------20-----------------------------16---------|
G|---------------------------------------------------------|
D|---------------------------------------------------------|
A|---------------------------------------------------------|
E|---------------------------------------------------------|

Xylophone ^^^

e|---------------------------------------------------------|
B|---------------------------------------------------------|
G|------------------------17-15----------------------------|
D|--------------------17-----------------------------------|
A|---------------------------------------------------------|
E|---------------------------------------------------------|

synth ^^^

Play together ^
------------------------------------------------------------------------

Handclap part

e|-3--4--4--4----4--4--4--6--3--3--3-----3h4p3-------------|
B|--------------------------------------4------4--4--4--4--|
G|-------------------------------------5-------------------|
D|-5--6--6--6----6--6--6-----5--5--5-----------------------| 
A|------------------------------------------------6--6--6--|
E|---------------------------------------------------------|

                                     sweep pick

------------------------------------------------------------------------

e|-3--------------4--4--4--6--3--3--3---3-4-3--------------|
B|--------------------------------------------6--4--4--4---|
G|---------------------------------------------------------|
D|-5--------------6--6--6-----5--5--5----------------------| 
A|-----------------------------------------------6--6--6---|
E|---------------------------------------------------------|

e|---3h4t11-----3h4t11-----2h3t10---------------3h4t11-----|
B|--4----------4----------3--------------------4-----------|
G|-5----------5----------4--------------------5------------|
D|---------------------------------------------------------|
A|---------------------------------------------------------|
E|---------------------------------------------------------|

Play together
-------------------------------------------------------------------------

e|-3--4--4--4----4--4--4--6--3--3--3-----3h4p3-------------|
B|--------------------------------------4------4--4--4--4--|
G|-------------------------------------5-------------------|
D|-5--6--6--6----6--6--6-----5--5--5-----------------------| 
A|------------------------------------------------6--6--6--|
E|---------------------------------------------------------|

e|---3h4t11-----3h4t11-----2h3t10---------------3h4t11-----|
B|--4----------4----------3--------------------4-----------|
G|-5----------5----------4--------------------5------------|
D|---------------------------------------------------------|
A|---------------------------------------------------------|
E|---------------------------------------------------------|

Play together
-------------------------------------------------------------------------

e|-------------------------------------------------------------------------------------------------------|
B|----------6--8-6-------6----------------6--8-6---------------------------------------------------------|
G|-----5-8---------8--5-----8--------5-8---------8-7BD-------5---5-----------8-----8---8-8---8-----------|
D|-6-8-------------------------5-6-8-------------------8--5----5---8-------6-----6---------------8---5-8-|
A|--------------------------------------------------------------------56-8-----8-----8-----8---8---8-----|
E|-------------------------------------------------------------------------------------------------------|

e|---3h4t11-------------3h4t11-------------2h3t10-----------------------3h4t11---------------------------|
B|--4------------------4------------------3----------------------------4---------------------------------|
G|-5------------------5------------------4----------------------------5----------------------------------|
D|-------------------------------------------------------------------------------------------------------|
A|-------------------------------------------------------------------------------------------------------|
E|-------------------------------------------------------------------------------------------------------|

e|----------------------------------------------------------------------------------------------------------|
B|----------------------------------------------------------------------------------------------------------|
G|-----------------------------------------------------------------------------------10--------------10-----|
D|-----------------------------------------------------------------------13-10-13-10-----10-13-13-10-----10-|
A|----------------------------------------------------------------------------------------------------------|
E|----------------------------------------------------------------------------------------------------------|

Play together
-------------------------------------------------------------------------------------------

e|---------------------------------------------6---|
B|----------6--8-6-------6----------------6--8---8-|
G|-----5-8---------8--5-----8--------5-8-----------|
D|-6-8-------------------------5-6-8---------------|
A|-------------------------------------------------|
E|-------------------------------------------------|

e|---3h4t11-------------3h4t11---------------------|
B|--4------------------4---------------------------|
G|-5------------------5----------------------------|
D|-------------------------------------------------|
A|-------------------------------------------------|
E|-------------------------------------------------|
  sweep pick        sweep pick          


Play together
-------------------------------------------------------------------------------------------

e|--3--3--3-----3-4-3------------|
B|--------------------4--4--4--4-|
G|-------------------------------|
D|--5--5--5----------------------| 
A|-----------------------6--6--6-|
E|-------------------------------|

e|---2t10------------------------|
B|--3----------------------------|
G|-4-----------------------------|
D|-------------------------------|
A|-------------------------------|
E|-------------------------------|
  Sweep pick

            
            
Suggest correction
Creating personal tab
Creating personal tab
You can edit any tab online and save it as your Personal.

You can edit, replace or remove any tab part or add personal notes – all changes will be seen only by you.

Personal tabs can be accessed anytime from any device, even offline.
Learn more »
Give kudos to tab author, rate the tab!
1 2 3 4 5
comments
print report bad tab
guest
You may want to rate the tab now too:
select rating
Wanna post a correction for this tab? Suggest correction