Oops, an error
Loading. Please wait.

Dancing With Tears In My Eyes bass

by Kesha
110 views 3 this week
no commentswrite comment
1 2 3 4 5
3 more votes to show rating
add to favorites
×
Save as Personal and add changes to this tab that will be seen only by you. Learn more ›
×
You can save this tab as Personal to edit and correct it or add notes. All changes will be seen only by you. Learn more »
launch autoscroll
font size
0
reset
guitar tuner
edit
Autoscroll
slow
fast
+/-
esc
set tempo
stop
Author
Difficulty
Couldn't find a tab for this so I created one. This is the exact bass part as heard in the recording.

Kesha – Dancing With Tears In My Eyes Bass Tab

Standard Tuning
x = mute the note

8 beat rest (2 measures) at intro

Verse 1
G|----------------------------------|
D|22222222--------5555555500000000--|
A|--------33333333------------------|   x4
E|----------------------------------|

G|----------------------------|
D|----------------------------|
A|3333333355555555333333335x--|   3 beat rest
E|----------------------------|

Chorus

G|----------------------------------|
D|2-2-2-2---------5-5-5-5-0-0-000x--|             4 beat rest
A|--------3-3-333-------------------|    x4       (1 measure)
E|----------------------------------|

Verse 2
G|-------------------------|
D|--------555555550000000--|
A|33333333-----------------|
E|-------------------------|

G|----------------------------------|
D|22222222--------5555555500000000--|
A|--------33333333------------------|   x3
E|----------------------------------|

G|----------------------------|
D|----------------------------|
A|3333333355555555333333335x--| 3 beat rest
E|----------------------------|

Chorus

G|--------------------------------|
D|2-2-2-2---------5-5-5-5-0-0-000-|             
A|--------3-3-333-----------------|    x4       
E|--------------------------------|



Bridge
G|---------------------------------|
D|---------------------------------|            8 Beat rest
A|3-3-3-3---------2-2-2-2-2-2-2-2x-|   x2       (2 measures)  
E|--------3-3-3-3------------------|


Chorus

G|--------------------------------|
D|2-2-2-2---------5-5-5-5-0-0-000-|             
A|--------3-3-333-----------------|    x3       
E|--------------------------------|

G|------------------------------------|
D|2-2-2-2---------5-5-5-5-0-0-000-2x--|
A|--------3-3-333---------------------|
E|------------------------------------|

            
            
Suggest correction
Creating personal tab
Creating personal tab
You can edit any tab online and save it as your Personal.

You can edit, replace or remove any tab part or add personal notes – all changes will be seen only by you.

Personal tabs can be accessed anytime from any device, even offline.
Learn more »
Give kudos to tab author, rate the tab!
1 2 3 4 5
comments
print report bad tab
guest
You may want to rate the tab now too:
select rating
Wanna post a correction for this tab? Suggest correction