Oops, an error
Loading. Please wait.

Godzilla chords

version 1
version 1

Whole song

  • Corrected chords, lyrics, chord alignment over lyr... Show more
by Kesha
1,882 views 225 this week
1 commentread comment
1 2 3 4 5
x 12
add to favorites
×
Save as Personal and add changes to this tab that will be seen only by you. Learn more ›
×
You can save this tab as Personal to edit and correct it or add notes. All changes will be seen only by you. Learn more »
launch autoscroll
font size
0
reset
transpose
0
reset
simplify chords
display chords
guitar tuner
edit
Autoscroll
slow
fast
+/-
esc
set tempo
stop
Strumming
There is no strumming pattern for this song yet. and get +5 IQ
Kesha
"Godzilla"

Standard tuning. Capo 2nd fret.

  G   D/F#  Em  Cadd9 Dsus4 C    Cm Ebdim7 Csus2 Bm7  G5/A Am   Bm
e|3---------0----3----3-----0----3----2------------------------------|
B|0----3----0----3----3-----1----4----1----3-----3----3----1----3----|
G|0----2----0----0----2-----0----5----2----0-----0----0----2----4----| (The Am and Bm going into
D|0----0----2----2----0-----2----5----1--------------------2----4----|  the Bridge are optional)
A|2---------2----3----------3----3---------3-----2----0----0----2----|
E|3----2----0--------------------------------------------------------|


[Intro]
  G     D/F#   Em           Cadd9  Dsus4 G
e|------------|------------|------------|------------|
B|--3-0---3-3-|--0-0---0-0-|--3-0-----3-|--0-0-0-----|
G|--0-0---2-2-|--0-0---0-0-|--0-0---2-2-|--0-0-0-----|
D|------------|------------|------0-0---|------------|
A|------------|------------|3-----------|------------|
E|3-----2-----|0-----0-----|------------|3-----------|

[Verse 1]
G           D/F#         Em           Cadd9 Dsus4  G
What do you get when you take Godzilla      to the mall?
   G              D/F#         Em                     Cadd9
He scares all the children and shreds all the pillows
                Dsus4 Gsus4/D
And knocks over walls
    Em                 Em/B
His emerald eyes, they sparkle and shine
      C                       Cm
As he eats the food court and steals half my fries
G                  D/F#         Em           Cadd9 Dsus4  G
That's What do you get when you take Godzilla      to the mall?

[Break]
C Ebdim7 G
C Ebdim7 G
Dsus4 Csus2 G/B  G5/A

[Verse 2]
G           D/F#         Em           Cadd9 Dsus4     G
What do you get when you take Godzilla   to meet your mom?
G            D/F#         Em                   Cadd9          Dsus4 Gsus4/D
He rings the bell and she looks out the window, and calls the cops
  Em                  Em/B
I try to explain that he's mostly tame
   C                         Cm
As long as there's pizza and video games
G               D/F#         Em           Cadd9 Dsus4     G
That's what you get when you take Godzilla   to meet your mom

[Break]
C Ebdim7 G
C Ebdim7 G
Dsus4 Csus2 G/B G5/A Am Bm

[Bridge]
      C                Dsus4       G
While everyone else is running and screaming
C                      Dsus4
I just love being with you
  C                Dsus4       G
I guess they don't see all the things that I'm seein'
C                         Dsus4 Csus2 G/B  G5/A
That make you so uniquely you,  you,  you, you

[Outro]
G           D/F#         Em           Cadd9 Dsus4   G
What do you get when you meet Godzilla  and fall in love?

            
            
Suggest correction
Creating personal tab
Creating personal tab
You can edit any tab online and save it as your Personal.

You can edit, replace or remove any tab part or add personal notes – all changes will be seen only by you.

Personal tabs can be accessed anytime from any device, even offline.
Learn more »
comments
print report bad tab
1 comment total.
0 reply
luvmusic4246 52 Aug 22, 2017 09:11 PM

its good chords, A+

guest
You may want to rate the tab now too:
select rating
Wanna post a correction for this tab? Suggest correction