Oops, an error
Loading. Please wait.

Godzilla tab

version 2
version 2

Whole song

  • Corrected chords, added lyrics to improve playability.
by Kesha
751 views 72 this week
no commentswrite comment
1 2 3 4 5
x 4
add to favorites
×
Save as Personal and add changes to this tab that will be seen only by you. Learn more ›
×
You can save this tab as Personal to edit and correct it or add notes. All changes will be seen only by you. Learn more »
launch autoscroll
font size
0
reset
how to read this tab
guitar tuner
edit
Autoscroll
slow
fast
+/-
esc
set tempo
stop
About this tab version
Corrected chords, added lyrics to improve playability. Was this info helpful? Yes No
Capo 2nd fret


[Intro]

    G              D/F#         Em                        C           D           G
e|-----------------------------------------------------|-------------------------------------------------|
B|------0---0----------3---3--------0---0-------0---0--|------1---1-------3---3-------0---0---0----------|
G|------0---0----------2---2--------0---0-------0---0--|------0---0-------2---2-------0---0---0----------|
D|-----------------------------------------------------|--------------0----------------------------------|
A|-----------------------------------------------------|--3----------------------------------------------|
E|--3--------------2------------0-----------0----------|--------------------------3-----------3----------|


[Verse 1]

    G              D/F#         Em                        C           D           G
e|-----------------------------------------------------|-------------------------------------------------|
B|------0---0----------3---3--------0---0-------0---0--|------1---1-------3---3-------0---0-------0---0--|
G|------0---0----------2---2--------0---0-------0---0--|------0---0-------2---2-------0---0-------0---0--|
D|-----------------------------------------------------|--------------0----------------------------------|
A|-----------------------------------------------------|--3----------------------------------------------|
E|--3--------------2------------0-----------0----------|--------------------------3-----------3----------|
    What  do  you  get when you take God----zilla,                    to   the    mall?

    G              D/F#         Em                        Am                      D           D7
e|-----------------------------------------------------|-------------------------------------------------|
B|------0---0----------3---3--------0---0-------0---0--|------1---1-------1---1-------3---3-------1---1--|
G|------0---0----------2---2--------0---0-------0---0--|------2---2-------2---2-------2---2-------2---2--|
D|-----------------------------------------------------|--------------------------0-----------0----------|
A|-----------------------------------------------------|--0-----------0----------------------------------|
E|--3--------------2------------0-----------0----------|-------------------------------------------------|
 He scares all the children and shreds all the pillows,           and knocks over walls

    Em                       G/B                       C                          Cm
e|--------------------------------------------------|----------------------------------------------------|
B|------0---0-------0---0--------3---3-------3---3--|------5---5-------5---5----------4---4------4-------|
G|------0---0-------0---0--------0---0-------0---0--|------5---5-------5---5----------5---5------5-------|
D|--------------------------------------------------|--------------------------------------------5-------|
A|---------------------------2-----------2----------|--3-----------3--------------3--------------3-------|
E|--0-----------0-----------------------------------|----------------------------------------------------|
His emerald     eyes,   they sparkle and shine,     as he eats the food court and steals half my fries

    G               D/F#         Em                        C           D           G
e|-----------------------------------------------------|-------------------------------------------------|
B|------0---0-----------3---3--------0---0------0---0--|------1---1-------3---3-------0---0-------0---0--|
G|------0---0-----------2---2--------0---0------0---0--|------0---0-------2---2-------0---0-------0---0--|
D|-----------------------------------------------------|--------------0----------------------------------|
A|-----------------------------------------------------|--3----------------------------------------------|
E|--3---------------2------------0----------0----------|--------------------------3-----------3----------|
    That's what you get when you take God---zilla,                    to   the    mall


[Interlude 1]

       C           D7           G                        C            D7          G
e|---------0---0---------------------------------------|------0---0--------------------------------------|
B|---------1---1-------1---1--------0---0-------0---0--|------1---1-------1---1-------0---0-------0---0--|
G|---------------------2---2--------0---0-------0---0--|------------------2---2-------0---0-------0---0--|
D|-----------------0-----------------------------------|--------------0----------------------------------|
A|-----3-----------------------------------------------|--3----------------------------------------------|
E|------------------------------3-----------3----------|--------------------------3-----------3----------|
Li-ree-da,     ree-da,      ree-da,                li-ree-da,     ree-da,     ree-da

       Dsus4       Csus2        G/B         G/A                             
e|-----------------------------------------------------|
B|---------3---3-------3---3--------3---3-------3---3--|
G|---------0---0-------0---0--------0---0-------0---0--|
D|-----0-----------------------------------------------|
A|-----------------3------------2-----------0----------|
E|-----------------------------------------------------|
Li-ree-da,  da-dee-da,   da-dee-da


[Verse 2]

    G              D/F#         Em                        C           D           G
e|-----------------------------------------------------|-------------------------------------------------|
B|------0---0----------3---3--------0---0-------0---0--|------1---1-------3---3-------0---0-------0---0--|
G|------0---0----------2---2--------0---0-------0---0--|------0---0-------2---2-------0---0-------0---0--|
D|-----------------------------------------------------|--------------0----------------------------------|
A|-----------------------------------------------------|--3----------------------------------------------|
E|--3--------------2------------0-----------0----------|--------------------------3-----------3----------|
    What  do  you  get when you take God----zilla,                to  meet  your  mom?

    G              D/F#         Em                        Am                      D           D7
e|-----------------------------------------------------|-------------------------------------------------|
B|------0---0----------3---3--------0---0-------0---0--|------1---1-------1---1-------3---3-------1---1--|
G|------0---0----------2---2--------0---0-------0---0--|------2---2-------2---2-------2---2-------2---2--|
D|-----------------------------------------------------|--------------------------0-----------0----------|
A|-----------------------------------------------------|--0-----------0----------------------------------|
E|--3--------------2------------0-----------0----------|-------------------------------------------------|
    He  rings  the bell and she looks out the window,             and calls  the  cops

    Em                       G/B                       C                          Cm
e|--------------------------------------------------|----------------------------------------------------|
B|------0---0-------0---0--------3---3-------3---3--|------5---5-----------5---5-------4---4---4---------|
G|------0---0-------0---0--------0---0-------0---0--|------5---5-----------5---5-------5---5---5---------|
D|--------------------------------------------------|------------------------------------------5---------|
A|---------------------------2-----------2----------|--3---------------3-----------3-----------3---------|
E|--0-----------0-----------------------------------|----------------------------------------------------|
  I try  to  explain    that he's mostly tame,      as long as there's pizza and   video       games

    G               D/F#         Em                        C           D           G
e|-----------------------------------------------------|-------------------------------------------------|
B|------0---0-----------3---3--------0---0------0---0--|------1---1-------3---3-------0---0-------0---0--|
G|------0---0-----------2---2--------0---0------0---0--|------0---0-------2---2-------0---0-------0---0--|
D|-----------------------------------------------------|--------------0----------------------------------|
A|-----------------------------------------------------|--3----------------------------------------------|
E|--3---------------2------------0----------0----------|--------------------------3-----------3----------|
    That's what you get when you take God---zilla,                to  meet  your  mom


[Interlude 2]

       C           D7           G                        C            D7          G
e|---------0---0---------------------------------------|------0---0--------------------------------------|
B|---------1---1-------1---1--------0---0-------0---0--|------1---1-------1---1-------0---0-------0---0--|
G|---------------------2---2--------0---0-------0---0--|------------------2---2-------0---0-------0---0--|
D|-----------------0-----------------------------------|--------------0----------------------------------|
A|-----3-----------------------------------------------|--3----------------------------------------------|
E|------------------------------3-----------3----------|--------------------------3-----------3----------|
Li-ree-da,     ree-da,      ree-da,                li-ree-da,     ree-da,     ree-da

       Dsus4       Csus2        G/B         G/A                             
e|-----------------------------------------------------|
B|---------3---3-------3---3--------3---3-------3---3--|
G|---------0---0-------0---0--------0---0-------0---0--|
D|-----0-----------------------------------------------|
A|-----------------3------------2-----------0----------|
E|-----------------------------------------------------|
Li-ree-da,  da-dee-da,   da-dee-da


[Bridge]

      C                       Dsus4       G              C                       D
e|----3--3-3-3-3--3--3-3-3-3--3--3-3-3-3--3--3-3-3-3--|--3--3-3-3-3--3--3-3-3-3--2--2-2-2-2--2--2-2-2-2--|
B|----1--1-1-1-1--1--1-1-1-1--3--3-3-3-3--3--3-3-3-3--|--1--1-1-1-1--1--1-1-1-1--3--3-3-3-3--3--3-3-3-3--|
G|----0--0-0-0-0--0--0-0-0-0--2--2-2-2-2--0--0-0-0-0--|--0--0-0-0-0--0--0-0-0-0--2--2-2-2-2--2--2-2-2-2--|
D|----2--2-2-2-2--2--2-2-2-2--0--0-0-0-0--0--0-0-0-0--|--2--2-2-2-2--2--2-2-2-2--0--0-0-0-0--0--0-0-0-0--|
A|----3--3-3-3-3--3--3-3-3-3--------------x--x-x-x-x--|--3--3-3-3-3--3--3-3-3-3--------------------------|
E|----------------------------------------3--3-3-3-3--|--------------------------------------------------|
While everyone    else     is running and screaming,     I just love being with  you

      C                       Dsus4       G              C                       Dsus4  Csus2  G/B    G/A 
e|----3--3-3-3-3--3--3-3-3-3--3--3-3-3-3--3--3-3-3-3--|--3--3-3-3-3--3--3-3-3-3--------------------------|
B|----1--1-1-1-1--1--1-1-1-1--3--3-3-3-3--3--3-3-3-3--|--1--1-1-1-1--1--1-1-1-1--3------3------3------3--|
G|----0--0-0-0-0--0--0-0-0-0--2--2-2-2-2--0--0-0-0-0--|--0--0-0-0-0--0--0-0-0-0--0------0------0------0--|
D|----2--2-2-2-2--2--2-2-2-2--0--0-0-0-0--0--0-0-0-0--|--2--2-2-2-2--2--2-2-2-2--0------x------x------x--|
A|----3--3-3-3-3--3--3-3-3-3--------------x--x-x-x-x--|--3--3-3-3-3--3--3-3-3-3---------3------2------0--|
E|----------------------------------------3--3-3-3-3--|--------------------------------------------------|
I guess they don't see all the things that I'm seein', that make you so uniquely you,   you,   you,   you


[Outro]

    G              D/F#         Em                        C           D           G
e|-----------------------------------------------------|-------------------------------------------------|
B|------0---0----------3---3--------0---0-------0---0--|--1-----------3-----------0----------------------|
G|------0---0----------2---2--------0---0-------0---0--|--0-----------2-----------0----------------------|
D|-----------------------------------------------------|--2-----------0-----------0----------------------|
A|-----------------------------------------------------|--3-----------------------x----------------------|
E|--3--------------2------------0-----------0----------|--------------------------3----------------------|
    What  do  you  get when you meet God----zilla,              and   fall   in   love?


            
            
Suggest correction
Creating personal tab
Creating personal tab
You can edit any tab online and save it as your Personal.

You can edit, replace or remove any tab part or add personal notes – all changes will be seen only by you.

Personal tabs can be accessed anytime from any device, even offline.
Learn more »
comments
print report bad tab
guest
You may want to rate the tab now too:
select rating
Wanna post a correction for this tab? Suggest correction