Oops, an error
Loading. Please wait.

Timber intro tab

version 2
version 2

Intro

by Kesha
1,399 views 6 this week
no commentswrite comment
1 2 3 4 5
3 more votes to show rating
add to favorites
×
Save as Personal and add changes to this tab that will be seen only by you. Learn more ›
×
You can save this tab as Personal to edit and correct it or add notes. All changes will be seen only by you. Learn more »
launch autoscroll
font size
0
reset
how to read this tab
guitar tuner
edit
Autoscroll
slow
fast
+/-
esc
set tempo
stop
-------------------------------------------------------------------------------
                             Timber - Kesha
-------------------------------------------------------------------------------
Tabbed by: A
Email: grenaderoses@gmail.com

Tuning: Standard

Capo on the 2nd/3rd fret (I prefer it on the 2nd but the 3rd is fine too.)
[NOTE: This is my first time creating a tab, please do tell me if there's anything I need to change :-)]

It's going down I'm yelling timber

e|--------------------------------------------------------------------------------------|
B|-0------------------------------------------------------------------------------------|
G|--2-0-0-0-4-2-0-4-7-------------------------------------------------------------------|
D|--------------------------------------------------------------------------------------|
A|--------------------------------------------------------------------------------------|
E|--------------------------------------------------------------------------------------|

You better move, you better dance

e|-------------------------------------------------------------------------------------|
B|-0--------0--------------------------------------------------------------------------|
G|--2-0-2-2--2-0-0-0-------------------------------------------------------------------|
D|-------------------------------------------------------------------------------------|
A|-------------------------------------------------------------------------------------|
E|-------------------------------------------------------------------------------------|

Let's make a night, you won't remember

e|-----------------------------------------------------------------------------------|
B|-0--------0----0-3-----------------------------------------------------------------|
G|--2-0-0-0--2-0---------------------------------------------------------------------|
D|-----------------------------------------------------------------------------------|
A|-----------------------------------------------------------------------------------|
E|-----------------------------------------------------------------------------------|

I'll be the one you won't forget

e|--------------------------------------------------------------------------------------|
B|-0--------0---------------------------------------------------------------------------|
G|--2-0-2-2--2-0-0h2--------------------------------------------------------------------|
D|--------------------------------------------------------------------------------------|
A|--------------------------------------------------------------------------------------|
E|--------------------------------------------------------------------------------------|


************************************

| /   slide up
| \   slide down
| h   hammer-on
| p   pull-off
| ~   vibrato
| +   harmonic
| x   Mute note
| b   Bend
| pb  Pre-bend
| br  Bend release
| pbr Pre-bend release
| brb Bend release bend

************************************
Suggest correction
Creating personal tab
Creating personal tab
You can edit any tab online and save it as your Personal.

You can edit, replace or remove any tab part or add personal notes – all changes will be seen only by you.

Personal tabs can be accessed anytime from any device, even offline.
Learn more »
Give kudos to tab author, rate the tab!
1 2 3 4 5
comments
print report bad tab
guest
Wanna post a correction for this tab? Suggest correction