Oops, an error
Loading. Please wait.

Sanagare Bass Tab

129 views 1 this week
no commentswrite comment
1 2 3 4 5
3 more votes to show rating
add to favorites
launch autoscroll
font size
0
reset
guitar tuner
Autoscroll
slow
fast
+/-
esc
set tempo
stop
Help us to improve Ultimate-Guitar.com Take our survey!
×
artist:    Kesmeseker
Song:      Sanagare
Album:     Dipten Ve Derinden
tabbed by: Paul (sitar5@unm.edu)

This is the bass line that is played continuously
throughout the entire song.  All notes are 8th notes.

  bar 1              bar 2
G|------------------|-----------------|
D|*-----------------|-----------------|
A|*-----------------|-5-5-5-5-5-5-5-5-|
E|--0-0-0-0-0-0-0-0-|-----------------|
  bar 3             bar 4
G|-----------------|------------------|
D|-----------------|-----------------*|
A|-2-2-2-2-2-2-2-2-|-3-3-3-3-3-2-0---*|
E|-----------------|---------------3--|

the order goes

bar 1
bar 2
bar 3
bar 4
bar 1
bar 2
bar 3
bar 4
bar 1
etc..

any questions on this song, just email me at   sitar5@unm.edu
Keep on Rocking:)
Suggest correction
Give kudos to tab author, rate the tab!
1 2 3 4 5
comments
print report bad tab
guest
You may want to rate the tab now too:
select rating
Wanna post a correction for this tab? Suggest correction