Oops, an error
Loading. Please wait.

Balu Tab

version 1
version 1

Whole song

Interactive

59,571 views 72 this week
3 commentsread comments
1 2 3 4 5
x 9
add to favorites
launch autoscroll
font size
0
reset
how to read this tab
guitar tuner
Autoscroll
slow
fast
+/-
esc
set tempo
stop
Help us to improve Ultimate-Guitar.com Take our survey!
×
Author
Difficulty
Capo
intermediate
3rd fret
[Intro]
(2 times)
Capo on 3. fret
(Tip: If you have no capo, begin 3 frets further in front. e.g. fret 3 would be 6 ... 
capo)

E|-----------------0-----------2-------------------------------------------------------------------|
H|-----3--------------3-----------3--------3-------------------------------------------------------|
G|--------0--------------0-----------0-----------------0--2-----2--4-----0-----0--2-----2--4-------|
D|-----------0-----------------------------------0-----------0--------0--------------0--------0----|
A|--------------------------3-----------------0-----3-----------------------3----------------------|
E|--3-----------2-----------------------3----------------------------------------------------------|


[Verse]
Manche sagen es währ einfach ich sage es ist schwer...
Immer Pläneschmiedend dastehend so schön und stumm...

Manche sagen es währ einfach ich sage es ist heikel...
Wie die Dinge sich wohl anfühlen wenn sie denn noch ganz wären...

G       D                 e
        Und gesucht und gefunden
e       D                  C
        In der Einsicht verbunden
C               D
Du gibst was du braust
D                 C
Ich glaub was ich seh’
C           D                     G
Endlich mal etwas das ich fast verstehe


G                     D
Frieden ist wenn alle gleich sind
D                   e
Sag an was wir hier haben
e                 D
Das Leben das wir Leben          (at the second time: das Leben das wir Lieben)
D                    C
Geschützt im Schützengraben
C             D
Gesucht und gefunden
D                  C       - D
Du vergisst wie du heißt         (du vergisst was du weißt)
D                        G
In dem Gefühl wir währen eins

--

G / D / E / D

D                      C
Und du vergisst wie du heißt


G                 D
Vergiss Romeo und Julia
D                e
Wann gibt’s Abendbrot
e                  D
Willst du wirklich tauschen
D                 C
Am ende waren sie tot
C                        D
Ich werde immer für dich da sein
D       C       - D
Bist du dabei
D                       G
In dem Gefühl wir wären zwei


[Outro]
G / D / e / D / C / D C / D / G
Suggest correction
comments
print report bad tab
3 comments total.
0 reply
Morning Glory ♫ 133 Nov 15, 2008 04:35 PM

Das Intro geht folgendermaßen :

E|-----------------0-----------2-------------------------------------------------------------------|
H|-----3--------------3-----------3--------3-------------------------------------------------------|
G|--------0--------------0-----------0------------2-----0--2-----2--4-----0-----0--2-----2--4------|
D|-----------0---------------------------------0-------------0--------0--------------0--------0----|
A|--------------------------3-----------------------3-----------------------3----------------------|
E|--3-----------2-----------------------0----------------------------------------------------------|

+3 reply
Morning Glory ♫ 133 Nov 15, 2008 04:36 PM

Kleinigkeit vergessen ! ;)

E|-----------------0-----------2-------------------------------------------------------------------|
H|-----3--------------3-----------3--------3-------------------------------------------------------|
G|--------0--------------0-----------0------------2-----0--2-----2--4-----0-----0--2-----2--4---0---|
D|-----------0---------------------------------0-------------0--------0--------------0--------0----|
A|--------------------------3-----------------------3-----------------------3----------------------|
E|--3-----------2-----------------------0----------------------------------------------------------|

0 reply
Flowjow 21 May 02, 2013 06:19 AM

Spielt sich sehr schön.

Kleine Anmerkung:
#1
Verse 1 ist eigentlich:
Manche sagen es wär einfach, ich sage es ist schwer, denn du,
ja du bist Audrey Hepburn und ich Balu, der Bär.

Immer Pläneschmiedend dastehend so schön und stumm, und ich,
ich fang an zu tanzen, werf erst mal alles um.

Nach "Und du vergisst wie du heißt" kommt noch mal das Intro oder ein Zwischenspiel, dann weitere Verse... etc.

guest
You may want to rate the tab now too:
select rating
Wanna post a correction for this tab? Suggest correction