Oops, an error
Loading. Please wait.

Balu tab

version 3
version 3

Whole song

Interactive

by Kettcar
3,059 views 15 this week
1 commentread comment
1 2 3 4 5
1 last vote to show rating
add to favorites
×
Save as Personal and add changes to this tab that will be seen only by you. Learn more ›
×
You can save this tab as Personal to edit and correct it or add notes. All changes will be seen only by you. Learn more »
launch autoscroll
font size
0
reset
how to read this tab
guitar tuner
edit
Autoscroll
slow
fast
+/-
esc
set tempo
stop
-------------------------------------------------------------------------------
                             BALU - Kettcar
-------------------------------------------------------------------------------
Tabbed by: Jan Wartenberg
note: based on Tabs from choasis; added intermediate Part, corrected text, added 
picking/strumming info
Tuning: Standard

Capo on 3rd fret
(Intro 2x)
E|-----------------0-----------2-------------------|
H|-----3--------------3-----------3--------3-------|
G|--------0--------------0-----------0-----------2-|
D|-----------0--------------------------------0----|
A|--------------------------3----------------------|
E|--3-----------2-----------------------0----------|

E|-------------------------------------------------|
H|-------------------------------------------------|
G|-----0--2-----2--4-----0-----0--2-----2--4-------|
D|-----------0--------0--------------0--------0----|
A|--3-----------------------3----------------------|
E|-------------------------------------------------|

(play Intro again 2x)
Manche sagen, es wär' einfach, ich sage, es ist schwer, 
Denn du, ja, du bist Audrey Hepburn und ich Balu, der Bär, 
Immer Pläne schmiedend dastehen, so schön und stumm, 
Und ich, ich fang' an zu tanzen, werf' erstmal alles um.

(strumming)
G       D                 e
        Und gesucht und gefunden
e       D                  C
        In der Einsicht verbunden
C               D
Du gibst, was du brauchst
D                 C
Ich glaub was ich seh'
C           D                     G
Endlich mal etwas, das ich fast versteh'


G                     D
Frieden ist, wenn alle gleich sind
                     e
Sag an, was wir hier haben
                   D
Das Leben, das wir leben
                     C
Geschützt im Schützengraben
              D
Gesucht und gefunden
                    C
Du vergisst, was du weißt
D                           G
In dem Gefühl, wir wären eins


G / D / e  (picking from G on*)
D                            C
Und Du vergisst, wie Du heißt
D 

(full strums again)
G / C / D / em / D (2x)

(Intro part again 4x)
Manche sagen, es wär einfach, ich sage, es ist heikel, 
Du bist New York City und ich bin Wanne-Eickel, 
Wie die Dinge sich wohl anfühlen, wenn sie denn noch ganz wären, 
Ein Lebenslauf gebastelt, mit den Händen eines Tanzbären.

(strumming)
G       D                 e
        Und gesucht und gefunden
e       D                  C
        In der Einsicht verbunden
C               D
Du gibst, was du brauchst
D                 C

Ich glaub, was ich seh'
C           D                     G
Endlich mal etwas, das ich fast versteh'

G                     D
Frieden ist, wenn alle gleich sind
                     e
Sag an, was wir hier haben
                   D
Das Leben, das wir lieben
                     C
Geschützt im Schützengraben
              D
Gesucht und gefunden
                    C
Du vergisst, was du weißt
D                           G (picking from G on*)

In dem Gefühl, wir wär'n eins

D / e
D                         C
Und du vergisst, wie du heißt
D / C
D                      
Und du vergisst, was du weißt

G                 D
Vergiss Romeo und Julia
                 e
Wann gibt’s Abendbrot
                   D
Willst du wirklich tauschen
                  C
Am Ende waren sie tot
                          D
Ich werd' immer für dich da sein
          C
Bist du dabei
D
In dem Gefühl wir wären zwei

(Outro, still picking)
G D e D / G (end on G, single strum)


========================================================
*picking:
Always pluck bass string and the highest 3 strings twice,
example with G:
E|-----3-----3-----3-----------|
H|-------0-----0---------------|
G|---------0-----0-------------|
D|-----------------------------|
A|-----------------------------|
E|--3--------------------------|

            
            
Suggest correction
Creating personal tab
Creating personal tab
You can edit any tab online and save it as your Personal.

You can edit, replace or remove any tab part or add personal notes – all changes will be seen only by you.

Personal tabs can be accessed anytime from any device, even offline.
Learn more »
Give kudos to tab author, rate the tab!
1 2 3 4 5
comments
print report bad tab
1 comment total.
0 reply
manji332 43 Nov 10, 2014 02:54 AM, edited at 08:00 am

Thanks for combining them!

But is the picking at the end with G not:

E|-----3-----3-----3-----------|
H|-------3-----3---------------|
G|---------0-----0-------------|
D|-----------------------------|
A|-----------------------------|
E|--3--------------------------|

E|--3--------------------------|

guest
You may want to rate the tab now too:
select rating
Wanna post a correction for this tab? Suggest correction