Oops, an error
Loading. Please wait.

11 17 10 Acoustic Tab

6,487 views 24 this week
3 commentsread comments
1 2 3 4 5
excellent!
x 4
add to favorites
launch autoscroll
font size
0
reset
how to read this tab
guitar tuner
Tab Pro tools
  • play this tab
  • loop segment
  • change instrument
  • show fretboard
  • metronome
×
Best way to learn
"11 17 10 Acoustic"
Autoscroll
slow
fast
+/-
esc
set tempo
stop
Contributor
Difficulty
intermediate
-----------------------------------------------------------------------------
11.17.10 – Kevin Devine
-------------------------------------------------------------------------------
Tabbed by: Stickadillo11
Email:  m.thomas@bellsouth.net
Tuning:  Standard

Basically, listen for the strumming pattern, but otherwise it should be right.
He varies his solo playing at the end, so I have included a few chords that he switches 
to that you can use how you see best fit.
Also, the second half of the song is played with chords, with essentially the same 
timing, only a fuller strumming pattern.
I will include the progression below, but just refer to the tablature for the timing, as 
it doesn’t really change.
Feel free to throw in a few hammer-ons and pull-offs in the chorded parts for a little interest.
Otherwise, any questions, corrections and comments are fully welcomed. Thanks and enjoy, guys.

e|---------------------------------------------------------------------------|
B|---------------------------------------------------------------------------|
G|---------------------------------------------------------------------------|
D|--10-10--7-7--5--3-3-3-3-3------5-5--3-3--10--7-7-7-7-7--------------------|
A|--10-10--7-7--5--3-3-3-3-3------5-5--3-3--10--7-7-7-7-7--------------------|
E|---8--8--5-5--3--1-1-1-1-1------3-3--1-1---8--5-5-5-5-5--------------------|
        I thought I was in love           It felt like it from close up
e|-----------------------------------------------------------------------------|
B|-----------------------------------------------------------------------------|
G|-----------------------------------------------------------------------------|
D|--5-5--10-10--8--3-3-3-3-3-------------10--5--7-(7-5--7-5-3)-----------------|
A|--5-5--10-10--8--3-3-3-3-3-------------10--5--7-(7-5--7-5-3)-----------------|
E|--3-3---8--8--5--1-1-1-1-1--------------8--3--5-(5-3--5-3-1)-----------------|
    But someplace to spill my blood	         Was all it ever was.
On the times he repeats at the end of the verse, refer to the parentheses

And the chord progression
	C, Am, G, F
	G, F, C, Am
	G, C, Am, F
	C, G, Am; (Am, G, Am, G, F)

Also, when he rocks out in the middle he throws in an E played as diagrammed below.

e|----0----0----3----1----0--------------------------------------------------|
B|----1----1----1----1----0--------------------------------------------------|
G|----0----2----0----2----0--------------------------------------------------|
D|----2----2----0----3----5--------------------------------------------------|
A|----3----0----2----3----7--------------------------------------------------|
E|----0----0----3----1----0--------------------------------------------------|
      C    Am   G    F    E
			                               (for all intents and purposes)
11.17.10
Kevin Devine

I thought I was in love
It felt like it from close up
But someplace to spill my blood
Was all it ever was

I felt I was in debt
Each night spent in your bed
A dream I let drop dead
And never had again

You were the moon held high
You broke black with your clean light
You're words I can't say right
Anytime I try
Anytime I try
Anytime I try

You said, "Sing from your joy!
You sound bored, you sound annoyed.
You can't keep what you did not have;
Can't even give it back.

So go, right from your spine.
Tell the truth and you'll be fine.
So what if your truth's just another lie?
No one seems to mind
No one seems to mind
No one seems to mind

Sour grapes when the joke goes bad
This same smirk, same bullshit laugh
It’s the egg on my face when I can't go back
I didn't plan for that
I didn't plan for that
I didn't plan for that
comments
print report bad tab
3 comments total.
0 reply
ladnan101 wrote on December 25 2011, 07:24 pm

No one else has, so I will, THANK YOU for tabbing out this beautiful song bud, Merry Christmas !

0 reply
Stickadillo11 wrote on January 5 2012, 06:52 pm

Hey guys, original poster here. Just wanted to clarify that the E that I said was in there actually is not. It's just an Am played further up the neck like this {X07550} Sorry if there was any confusion and I hope this helps!

0 reply
trl7 wrote on April 3 2012, 09:40 pm

I think he plays this a half step down. Other than that great tab.

I want to post or [tab]
guest
You may want to rate the tab now too:
select rating
Please do not post tabs as comments. Select "correction" instead!