Oops, an error
Loading. Please wait.

Afterparty Tab

1,392 views 1 this week
no commentswrite comment
1 2 3 4 5
please rate
add to favorites
launch autoscroll
font size
0
reset
how to read this tab
guitar tuner
Autoscroll
slow
fast
+/-
esc
set tempo
stop
Help us to improve Ultimate-Guitar.com Take our survey!
×
Author
Difficulty
intermediate
-------------------------------------------------------------------------------
                             Afterparty - Kevin Devine
-------------------------------------------------------------------------------
Tabbed by: Nick Stola
Email: letingoffhapyness@aim.com

Tuning: standard no capo


in the CD version there is a lot of keyboard but if your playing
just guitar all you have to do is hammer ons and pull offs on some
of the chords

enjoy

               the afterparty...(main chord progression)


       C        Dm F  G

e|--------------1--1--3-------------------------------------------------------------|
B|----------1---3--1--3-------------------------------------------------------------|
G|--------------2--2--0-------------------------------------------------------------|
D|------0h2-----0--3--0-------------------------------------------------------------|
A|--3-3---------------2-------------------------------------------------------------|
E|--------------------3-------------------------------------------------------------|


         your just drinking...
         so im just sweeping...

      Am  Dm F  G

e|--------1--1--3------------------------------------------------------------------|
B|-----1--3--1--3------------------------------------------------------------------|
G|-----2--2--2--0------------------------------------------------------------------|
D|-----2--0--3--0------------------------------------------------------------------|
A|-2-0-0--------2------------------------------------------------------------------|
E|--------------3------------------------------------------------------------------|

          im not really...
          i keep changing my...

      Am  ?  F  G    Dm       F  G

e|-----------1--3--1---------1--1--3--|
B|-----1--1--1--3--3------------1--3--|
G|-----2--0--2--0--2-----0h2----2--0--|
D|-----2--2--3--0--0-0-0--------3--0--|
A|-2-0-0--2--3--2---------------3--2--|
E|--------0-----3------------------3--|


end on the C
Suggest correction new What's this?
You can suggest a correction to this tab. Community and Mods will review your correction and vote to approve or reject it.
comments
We did not receive enough feedback on this tab! Please rate:
print report bad tab
1 2 3 4 5
guest
You may want to rate the tab now too:
select rating
Please do not post tabs as comments. Select "correction" instead!