Oops, an error
Loading. Please wait.

Another Bag Of Bones Tab

version 3
version 3

Whole song

7,502 views 3 this week
5 commentsread comments
1 2 3 4 5
x 6
add to favorites
launch autoscroll
font size
0
reset
how to read this tab
guitar tuner
Autoscroll
slow
fast
+/-
esc
set tempo
stop
Help us to improve Ultimate-Guitar.com Take our survey!
×
The last tab is wrong wrong wrong.


e----------------------------|
B----------------------------|
G----------------------------|
D------------------2h0-------|
A--3----5-----3----------3h0-|
E--1----7-----0--------------|

That's all it is over and over again. I don't know how the last one could be so blatantly wrong.
Suggest correction
comments
print report bad tab
5 comments total. Showing first comments.
-1 reply
forgot2follow 31 Jul 31, 2008 10:47 AM

whats the point of a whole new tab when you think the last guy was one note out? and this is still wrong. should be 02xxxx not 03xxxxx and i think both pulloffs are from the second fret as well.

0 reply
onthepull 537 Jul 31, 2008 01:45 PM

no. you're wrong. it is 03xxxxx guaranteed. the only thing wrong is its supposed to be 53xxxx and the pull offs are not both on the second fret. you lose.

+2 reply
onthepull 537 Jul 31, 2008 03:18 PM

e----------------
B----------------
G----------------
D---------2h0----
A 3--5--3-----3h0
E 1--3--0--------

the only variation is he sometimes goes

D--------------
A-3-3-3-2-2-3-3
E-1-1-1-1-1-1-1

i promise.

guest
You may want to rate the tab now too:
select rating
Wanna post a correction for this tab? Suggest correction