Oops, an error
Loading. Please wait.

Another Bag Of Bones Tab

version 4
version 4

Whole song

1,972 views 1 this week
no commentswrite comment
1 2 3 4 5
1 last vote to show rating
add to favorites
launch autoscroll
font size
0
reset
how to read this tab
guitar tuner
Autoscroll
slow
fast
+/-
esc
set tempo
stop
Help us to improve Ultimate-Guitar.com Take our survey!
×
Author
This is one of my first tabs so I hope it's good.
Tuning: Standard
This is best played by an acoustic guitar.

Intro (2x)
---------------------------------|
---------------------------------|
----------------------------2p0--|
------------------------------3p0| 
x3-3-3-3-3-3-3-3-3-3-3-3-3-3-----|
x1-1-1-1-1-1-1-1-5-5-5-0-0-0-----|

------------------------------------|  (22x)
------------------------------------| 
------------------------------2p0*--| *Play only after the 7th and 14th time
--------------------------------3p0*|       
-3-3-3-3-3-3-3-3-3-3-3-3-3-3-3------|
-1-1-1-1-1-1-1-1-5-5-5-5-0-0-0------|

Suggest correction
Give kudos to tab author, rate the tab!
1 2 3 4 5
comments
print report bad tab
guest
You may want to rate the tab now too:
select rating
Wanna post a correction for this tab? Suggest correction