Oops, an error
Loading. Please wait.

Another Bag Of Bones Tab

version 5
version 5

Whole song

451 views 1 this week
no commentswrite comment
1 2 3 4 5
3 more votes to show rating
add to favorites
launch autoscroll
font size
0
reset
how to read this tab
guitar tuner
Autoscroll
slow
fast
+/-
esc
set tempo
stop
Help us to improve Ultimate-Guitar.com Take our survey!
×
Author
Difficulty
novice
This is the first tab ive done inna while so go easy. ;) this is a really great song 
Kevin did and is actually extremely simple...enjoy!
song: Another Bag of Bones
artist: Kevin Devine

Intro
acoustic guitar
e---------------------------------------------------------------------|
b---------------------------------------------------------------------|
g---------------------------------------------------------------------| x2
d-3-3-3-3-3-3-3-3/7-7-7\2-2-2--2p0------------------------------------|
a-3-3-3-3-3-3-3-3/7-7-7\2-2-2------3p0--------------------------------|
E-1-1-1-1-1-1-1-1/5-5-5\0-0-0-----------------------------------------|

Verse
acoustic guitar
e---------------------------------------------------------------------|
b---------------------------------------------------------------------|
g---------------------------------------------------------------------|as
d-3-3-3-3-3-3-3-3/7-7-7-7\2-2-2-2-------------------------------------|long
a-3-3-3-3-3-3-3-3/7-7-7-7\2-2-2-2-------------------------------------|as
E-1-1-1-1-1-1-1-1/5-5-5-5\0-0-0-0-------------------------------------|needed

in between verse
acoustic guitar
e---------------------------------------------------------------------|
b---------------------------------------------------------------------|
g---------------------------------------------------------------------|as
d-3-3-3-3-3-3-3-3/7-7-7\2-2-2--2p0------------------------------------|long
a-3-3-3-3-2-2-3-3/7-7-7\2-2-2------3p0--------------------------------|as
E-1-1-1-1-1-1-1-1/5-5-5\0-0-0-----------------------------------------|needed
electric guitar
e---------------------------------------------------------------------|
b---------------------------------------------------------------------|
g---------------------------------------------------------------------|as
d-3-3-3-3-3-3-3-3/7-7-7\2-2-2--2p0------------------------------------|long
a-3-3-3-3-2-2-3-3/7-7-7\2-2-2------3p0--------------------------------|as
E-1-1-1-1-1-1-1-1/5-5-5\0-0-0-----------------------------------------|needed

That's basically the entire song, if there is something missing try figuring it out 
yourself cause this song was really simple to figure out by ear. thanks for playing my tab!
Suggest correction
Give kudos to tab author, rate the tab!
1 2 3 4 5
comments
print report bad tab
guest
You may want to rate the tab now too:
select rating
Wanna post a correction for this tab? Suggest correction