Oops, an error
Loading. Please wait.

Brothers Blood Tab

version 1
version 1

Intro

Whole song

8,501 views 12 this week
2 commentsread comments
1 2 3 4 5
accurate
x 6
add to favorites
launch autoscroll
font size
0
reset
how to read this tab
guitar tuner
Tab Pro tools
  • play this tab
  • loop segment
  • change instrument
  • show fretboard
  • metronome
Autoscroll
slow
fast
+/-
esc
set tempo
stop
Contributor
     intro
                strum            strum      strum        strum
e|--------------------------------------------1------------3---------------|
B|---------------1-----------------1----------3---0h2p0----3---------------|
G|---------------2-----------------0-------0--2--------2---0---------------|
D|----2-2p0---0--2------2-2p0---0--2---2-3-----------------0---------------|
A|----------3-----------------3----3-----------------------2---3-2-0-------|
E|---------------------------------3--------------------3--3---------------|

                strum             strum      strum        strum
e|--------------------------------------------1------------3---------------|
B|---------------1-----------------1----------3---0h2p0----3---------------|
G|---------------2-----------------0-------0--2--------2---0---------------|
D|---------------2------2-2p0---0--2---2-3-----------------0---------------|
A|----------------------------3----3-----------------------2---3-2-0-------|
E|---------------------------------3--------------------3--3---------------|


            Am
My Brothers Blood boils in my arms.
         C
Balls my fingers into fists.
           Dm
It bubbles blisters burns my palms.
               G
It floods with fury fights and fits.


             Am
It’s got the good guy in me hiding.
            C
It kicks my humble heart around.
            Dm
It’s got me fiending for the fire
           G
That could finish off this town.
Oh it’s got me good.


Interlude
[Am, C, Dm, G]x3


            Am
My brothers blood on the cherry tree.
             C
It stains to bark from branch to root.
           Dm
It puddles thick with pits and leaves.
              G
It stains the sweetness from the fruit.
 
            Am
It's got me looking for communion.
            C
Some hiding spot off underground.
        Dm
An open plot I could climb into.
        G
A lightning promise in my mouth.


            C                G
A black out oath I swore and meant.
           Dm         Am
I couldn’t conger up again.
        C        G     F        E        Am
I don’t know one thing about my brother’s blood.
    G
No, oh.
        Am             E                  Am
I don’t know one thing about my brother’s blood.




[Am, C, Dm, G]x5


                  Am
It’s my brother’s blood in my dirty lung.
               C
On my crooked mouth and my swollen tongue.
              Dm
On my fathers gun. On each strangers face.
                      G
Across the blue bird sky. On every hand I shake.


             Am
Night after night, on each chuckled prayer.
              C
Such sweet relief, my fist full of hair.
                    Dm
And each desperate drug for elusive peace.
                    G
And every endless night and every wasted week.


            Am
All that dialogue doubling back on me.
                   C
All that tangled talk. All my growling need.
                   Dm
It’s my brother’s back. It’s my father’s arms
                G
Every twisted fact. In my sorry heart. (My sorry heart.)


Interlude
[Am, C, Dm, G]x3

              C                     G
I spit and I scream 'What’s done is done'.
              Dm             Am
Go make your peace with everyone.
        C        G     F        E        Am
I don’t know one thing about my brother’s blood.
    G
No, oh.
        Am             E                  Am
I don’t know one thing about my brother’s blood.

comments
print report bad tab
2 comments total.
+1 reply
webbyness wrote on September 15 2009, 03:26 pm

e|--------------------------------------------1p0h1--------3---------------|
B|---------------1-----------------1----------3------------3---------------|
G|---------------2-----------------0-------0--2---0h2p0----0---------------|
D|----2-2p0---0--2------2-2p0---0--2---2-3-------------2---0---------------|
A|----------3-----------------3----3-----------------------2---3-2-0-------|
E|---------------------------------3--------------------3--3---------------|

0 reply
bearsafety wrote on July 15 2011, 01:44 pm

To end the riff on the A string instead of playing 3 2 0, I like to play 7 3 2. It accents back into the A chord better.

I want to post or [tab]
guest
You may want to rate the tab now too:
select rating
Please do not post tabs as comments. Select "correction" instead!