Oops, an error
Loading. Please wait.

Buried By The Buzz Tab

1,911 views 1 this week
1 commentread comment
1 2 3 4 5
please rate
add to favorites
launch autoscroll
font size
0
reset
how to read this tab
guitar tuner
Autoscroll
slow
fast
+/-
esc
set tempo
stop
Help us to improve Ultimate-Guitar.com Take our survey!
×
Author
Difficulty
intermediate
Note: The strum pattern is a bit tricky, but if you listen through the song, you 
should pick it up quickly.

VERSE 1: "I got a sweet tooth..."

   D   A   F#m G   A   G   F#m      G                F#m 
e|---------------------------------------------------------------------|
B|---------------------------------------------------------------------|
G|---------------------------------------------------------------------|
D|-0-0-22224-4-55557-7-5-5-4-4-4444-5-5-5-5-5-5-5555-4-4-4-4-4-4-4444--| x2
A|-0-0-00000-0-00000-0-0-0-0-0-0000-0-0-0-0-0-0-0000-0-0-0-0-0-0-0000--|
E|---------------------------------------------------------------------|

CHORUS: 
       G             D                  Em
So I'm buried by the buzz of a year gone numb
    G             D                  Em
I'm buried by the buzz of a year gone numb
        G             D               Em
I found gossip in the ivy that's been swallowing my house
            G                D               Em
And I found bones in the foundation that I'm just picking out now
       G             D                  Em
So I'm buried by the buzz of a year gone numb

INTERLUDE: (There are three guitars going here, I tabbed some combination of them 
to try and emulate the sound for one guitar)

Guitar 1:

    G               A               Bm              A
e|----3---3---3---3---5---5---5---5---7---7---7---7---5---5---5---5-|
B|------------------------------------------------------------------|
G|------------------------------------------------------------------|
D|--5---5---5---5---7---7---7---7---9---9---9---9---7---7---7---7---| x2
A|--5---5---5---5---7---7---7---7---9---9---9---9---7---7---7---7---|
E|--3---3---3---3---5---5---5---5---7---7---7---7---5---5---5---5---|

Guitar 2 plays the intro


VERSE 2: (Same as the interlude)

Guitar 1:
G          A      Bm            A          G
I've got a fistful of shattered seashells
                 A       Bm             A        G
That scream like soldiers stuck down an oil well
        A       Bm           A       G
I saw a bad sign lit up like Broadway
                 A         Bm
And I watched my head spin
               A
And I heard my voice shake


Guitar 2 plays the intro


CHORUS:
    G             D                  Em
I'm buried by the buzz of a year gone numb
    G             D                  Em
I'm buried by the buzz of a year gone numb
        G              D
I found trouble in the ghost town
               Em
That I've been building with my hands
            G              D
But I found comfort in the snowstorm
               Em
That I've been piling on my past
       G             D                  Em
So I'm buried by the buzz of a year gone numb
B5      Bb5  A5    G5
Ahhhhh, ahh, ahh, ah     x4

SOLO:

Guitar 2 repeats the intro


CHORUS:
       G             D                  Em
So I'm buried by the buzz of a year gone numb
    G             D                  Em
I'm buried by the buzz of a year gone numb
      G             D
I see symptoms of a sickness
         Em
In every stranger on the street
          G             D
And I see danger in the distance
         Em
Speeding straight for you and me
    G             D                  Em
I'm buried by the buzz of a year gone numb
    G             D                  Em
I'm buried by the buzz of a year gone numb
    G             D                 
I'm buried by the buzz of a year gone


I know this tab isn't perfect, but it is a good start- hopefully someone will use 
this to make a more accurate version
Suggest correction
What's this?
You can suggest a correction to this tab. Community and Mods will review your correction and vote to approve or reject it.
comments
We did not receive enough feedback on this tab! Please rate:
print report bad tab
1 2 3 4 5
1 comment total.
+1 reply
jacksonblakem 13 wrote on April 20 2014, 10:02 am

chords in the intro (rhythm simplified just a little)

------------------------------------------------------------------------
------------------------------------------------------------------------
------------------------------------------------------------------------
------------------7-7---------------------------------------------------
7-7-9-9-10-10-9-9-----10-10-9-9-9-9-10-10-10-10-10-10-10-10-10-10-10-10-
0-0-0-0--0--0-0-0-8-8--8--8-8-8-8-8-10-10-10-10-10-10-10-10--9--9--9--9-

-----------
-----------
-----------
-----------
10-10-10-10
-9--9--9--9

guest
You may want to rate the tab now too:
select rating
Please do not post tabs as comments. Select "correction" instead!