Oops, an error
Loading. Please wait.

I Used To Be Someone Tab

3,041 views 3 this week
no commentswrite comment
1 2 3 4 5
please rate
add to favorites
launch autoscroll
font size
0
reset
how to read this tab
guitar tuner
Autoscroll
slow
fast
+/-
esc
set tempo
stop
Help us to improve Ultimate-Guitar.com Take our survey!
×
Author
Difficulty
novice
-------------------------------------------------------------------------------
                             I Used to Be Someone - Kevin Devine
-----------------------------------------------------------------------------
Tabbed by: Ryan Mack
Email: mackryan09@gmail.com
Album: Between the Concrete & Clouds
Tuning: Standard

e|--------------------------------------------------------------------------|
B|--------------------------------------------------------------------------|
G|---7-------------7----------------0----------------------------------------|
D|---7------5------7------2-0-0-h-2--------------------------------------------|
A|---5------7------5------0-0-----------------------------------------------|
E|------------------------3-3-----------------------------------------------|

Play these throughout the the song (Verses and Choruses)


e|---------------2----------------------------------------------------------|
B|---3-----------3----------------------------------------------------------|
G|---4-----2-----2----------------------------------------------------------|
D|---4-----0-----0----------------------------------------------------------|
A|---2-----0----------------------------------------------------------------|
E|---------3----------------------------------------------------------------|

"Oooo oooo wooo oooo oooo oooo"


That's it! Listen to the song to get the pattern. 
Suggest correction
Give kudos to tab author, rate the tab!
1 2 3 4 5
comments
print report bad tab
guest
You may want to rate the tab now too:
select rating
Wanna post a correction for this tab? Suggest correction